Quilmes - Himno Quilmes 2002 Chords & Tabs

 

Himno Quilmes 2002 Chords & Tabs

Quilmes Chords & Tabs

Version: 1 Type: Tab 0 ratings
1 star 2 stars 3 stars 4 stars 5 stars
comments

Himno Quilmes 2002 Tab

   
HIMNO DE QUILMES 2002
(by QUILMES)
tabbed by: charlyghost!

AGUANTE ARGENTINA!!!!
CAMPEON COREA-JAPON 2002

AST/KAR
comments: charlyghost@hotmail.com

intro:>

e|----10/12b~~~10/12b~~~----10-10---10------------||
B|-------------------------------13---13b(half)---||
G|------------------------------------------------||
D|------------------------------------------------||
A|------------------------------------------------||
E|------------------------------------------------||




[C]Eran otros tiempos, era otra la historia,
no había med[F]allas, solo hambre de gloria
solo se jug[G]aba por la camiseta
como en el potr[C]ero, taquito y gambeta


[C]Y vino una copa, llegó la primera
con el matad[F]or envuelto en banderas
la gente alent[G]aba en cada partido
hubo un papel[C]ito por cada latido
[ Tab from: http://www.guitartabs.cc/tabs/q/quilmes/himno_quilmes_2002_tab.html ]

[C]después vino el diego y tocamos el cielo
nos trajo la co[F]pa cumpliendo su sueño
y en cada garg[G]anta grito en cada esquina
es un sentimien[C]to, vamos Argentina


[C]Tanta [F]gloria tanto [G]fútbol desple[C]gado por el [Am]mundo
y en cada [F]gol, la pa[G]sión y la emo[C]ción


[C]sigamos gritando, sigamos creyendo,
sigamos confi[F]ando que al fin ganaremos,
es nuestra ban[G]dera la que defendemos
mostremosle al [C]mundo que juntos podemos

repeat 


...sponsor oficial de la selección...


CHORDS
------

     G       C        F       Am
e|----3--|----0----|---1---|----5-----||
B|----4--|----1----|---1---|----5-----||
G|----5--|----0----|---2---|----5-----||
D|----5--|----2----|---3---|----7-----||
A|----3--|----3----|---3---|----7-----||
E|----3--|----0----|---1---|----5-----||



thanx. para todos los q me conocen, saludos!
aguante argentina!!!
insultos y demás a> charlyghost@hotmail.com
Comments