Quiet Riot - Bang Your Head Chords & Tabs

 

Bang Your Head Chords & Tabs

Quiet Riot Chords & Tabs

Version: 3 Type: Tab

Bang Your Head Tab

-------------------------------------------------------------------------------
			     SONG NAME - Band Name
-------------------------------------------------------------------------------
Tabbed by:
Email:

Tuning:

e|-------------------------------7--------5----7-----5-----------------|
B|----10--10---10------------7--------7------------------7-----5----7--|
G|----12--12---12---------8--------------------------------------------|
D|---------------------------------------------------------------------|
A|---------------------------------------------------------------------|
E|---------------------------------------------------------------------|
[ Tab from: http://www.guitartabs.cc/tabs/q/quiet_riot/bang_your_head_tab_ver_3.html ]
e|---5-------4------------------------------------------------------8-----------------|
B|--------7------7--5--7-----------------5--------------------------------------------|
G|--------------------------7--7--4--7--------7----7--7-------------------------------|
D|--------------------------------------------------------7----9----------------------|
A|------------------------------------------------------------------------------------|
E|------------------------------------------------------------------------------------|
              tapping part
e|------------------------------------------|
B|-----10-13-17-10-13-17-10-13-17-10-13-17--|
G|------------------------------------------|
D|------------------------------------------|
A|------------------------------------------|
E|------------------------------------------|

e|--10-10-10-10-10-10-14-14-14-15-15-15-17-17-17-17-15-15-19-19-19--|
B|------------------------------------------------------------------|
G|------------------------------------------------------------------|
D|------------------------------------------------------------------|
A|------------------------------------------------------------------|
E|------------------------------------------------------------------|

e|--19-19-19-19------------------------------------------------------------------|
B|----------------17-17-17-17--------------17-17-17-17---------------------------|
G|-----------------------------15-15-15-15-------------15-15-15-15---------------|
D|------------------------------------------------------------------14-14-14-14--|
A|-------------------------------------------------------------------------------|
E|-------------------------------------------------------------------------------|

e|-15-15-15-15-15-15-12-15--|
B|--------------------------|
G|--------------------------|
D|--------------------------|
A|--------------------------|
E|--------------------------|