Quiet Riot - Bang Your Head Chords & Tabs

 

Bang Your Head Chords & Tabs

Quiet Riot Chords & Tabs

Version: 1 Type: Tab 4 ratings
1 star 2 stars 3 stars 4 stars 5 stars
comments

Bang Your Head Tab

   
BANG YOUR HEAD-QUIET RIOT

^=bend up


-----------------------8-7---------------------------------
-----------------------7-7---------------------------------
-2---------2---2-------------------------------------------
-2-5-----5-2-5-2-------------------------------------------
-0-3-5-5-3-0-3-0-------------------------------------------
-----3-3---------------------------------------------------

-----------------------------------------------------------
-----------------------------------------------------------
-2---------2---2-------------------------------------------
-2-5-----5-2-5-2-------------------------------------------
-0-3-5-5-3-0-3-0-------------------------------------------
-----3-3---------------------------------------------------

-----------------------8-7---------------------------------
-----------------------7-7---------------------------------
-2---------2---2-------------------------------------------
-2-5-----5-2-5-2-------------------------------------------
-0-3-5-5-3-0-3-0-------------------------------------------
-----3-3---------------------------------------------------

-----------------------------------------------------------
-----------------------------------------------------------
-2---------2---2-------------------------------------------
-2-5-----5-2-5-2-------------------------------------------
-0-3-5-5-3-0-3-0-------------------------------------------
-----3-3---------------------------------------------------

-----------------------------------------------------------
-2-4-5-4---------------------------------------------------
-2-4-5-4---------------------------------------------------x2
-2-4-5-4---------------------------------------------------
-0---------------------------------------------------------
-----------------------------------------------------------

-----------------------------------------------------------
-2-------4------5------4-----------------------------------
-2-------4------5------4-----------------------------------
-2-------4------5------4-----------------------------------
-0-000000-000000-000000------------------------------------
-----------------------------------------------------------

-----------------------------------------------------------
-2-4-5-4---------------------------------------------------
-2-4-5-4---------------------------------------------------
-2-4-5-4----LET RING---------------------------------------
-0---------------------------------------------------------
-----------------------------------------------------------
[ Tab from: http://www.guitartabs.cc/tabs/q/quiet_riot/bang_your_head_tab.html ]
-----------------------------------------------------------
-----------------------------------------------------------
-2---------2---2-------------------------------------------x2
-2-5-----5-2-5-2-------------------------------------------
-0-3-5-5-3-0-3-0-------------------------------------------
-----3-3---------------------------------------------------

SOLO
-20-----------------------------------------------------
-----17-17---20-----------------------------------------
-----------------17-19----------------------------------
-----------------------17-19----------------------------
-----------------------------17---15^-15^---------------
------------------------------------------17------------

-----------------------------------------------------------
-2-4-5-4---------------------------------------------------
-2-4-5-4---------------------------------------------------x2
-2-4-5-4---------------------------------------------------
-0---------------------------------------------------------
-----------------------------------------------------------

-----------------------------------------------------------
-2-------4------5------4-----------------------------------
-2-------4------5------4-----------------------------------
-2-------4------5------4-----------------------------------
-0-000000-000000-000000------------------------------------
-----------------------------------------------------------

-----------------------------------------------------------
-2-4-5-4---------------------------------------------------
-2-4-5-4---------------------------------------------------
-2-4-5-4----LET RING---------------------------------------
-0---------------------------------------------------------
------------------------------------------------------

-----------------------------------------------------------
-----------------------------------------------------------
-2---------2---2-------------------------------------------x2
-2-5-----5-2-5-2-------------------------------------------
-0-3-5-5-3-0-3-0-------------------------------------------
-----3-3---------------------------------------------------


----------------------------------------------------
----------------------------------------------------
----------------------------------------------------
--5------------7------------------------------------
--3-5--5-7---7-5-------------------------------------
----3--3-5---5--------------------------------------



Enjoy. This is a great song and easy to play get correct timing by listening to the song. Have Fun!

-Mitch B
Comments