Quicksand - Thorn In My Side Chords & Tabs

 

Thorn In My Side Chords & Tabs

Quicksand Chords & Tabs

Version: 1 Type: Tab 0 ratings
1 star 2 stars 3 stars 4 stars 5 stars
comments

Thorn In My Side Tab

#----------------------------------PLEASE NOTE--------------------------------#
#This file is the author's own work and represents their interpretation of the#
#song. You may only use this file for private study, scholarship, or research.#
#-----------------------------------------------------------------------------#

Date: Sat, 04 Apr 1998 13:52:36 -0500
From: Gregg 
Subject: TAB: Thorn in my Side by Quicksand


TAB:	   Thorn in my Side
ARTIST:  Quicksand
ALBUM:   Manic Compression

Transcribed by:  G.Meluski
[ Tab from: http://www.guitartabs.cc/tabs/q/quicksand/thorn_in_my_side_tab.html ]
   Main Riff                                                                           
E-|-------------------------------------|
B-|-------------------------------------|
G-|-------------------------------------|
D-|--0----0-0-----10---6/5--------------|
A-|--0----0-0-----10---6/5--------------|
D-|--0----0-0-----10---6/5--------------|
                                                                               
   Verse Riff -- to do the harmonics, simply speed pick the D while
                 lightly sliding your finger up it.                                                                            
E-|----------------------------------------------------------------|
B-|----------------------------------------------------------------|
G-|----------------------------------------------------------------|
D-|--0----0-0--
Comments