Queers - Debra Jean Chords & Tabs

 

Debra Jean Chords & Tabs

Queers Chords & Tabs

Version: 1 Type: Bass Tab 0 ratings
1 star 2 stars 3 stars 4 stars 5 stars
comments

Debra Jean Bass Tab

   
BASS TABLATURE:

   This is the bass tablature for DEBRA JEAN from the album LOVE SONGS 
   FOR THE RETARDED written by THE QUEERS.
   This was song was figured out by MAX OBEIDIN (and a little bit by
   RYAN JERNIGAN)
   E-Mail: obeidi19@mail.airmail.net
   This song is played in standard tuning (E,A,D,G).
   Lyrics and Music by THE QUEERS.
  (Taken from the lyrics in the album.)

   Notes:
        I recommend playing the song with downstrokes.
        By the way, this is my second tab.


   Here Are The Notes That You'll Need:

          E = ---------        G = ---------        C = ---------
              ---------            ---------            ---------
              ---------            ---------            ----3----
              ----0----            ----3----            ---------

        D = ---------         D = ---------
            ---------     or      ----0----
            ----5----             ---------
            ---------             ---------
[ Tab from: http://www.guitartabs.cc/tabs/q/queers/debra_jean_btab.html ]
   Play the D note whichever way is the easiest.
   (I use the first one.)

   Each Note Is Played Several Times
   (It's Best To Practice Along With The Album).

   The Solo: (Arranged an octave lower for the bass.)


     ---------------------------------------------- ------5-4---4-5-4---7-5-4---
     -5----7-9-10-9-7-5------7-9-10-9-7-5------7-9-10-9-7-----7-------7-------5-
     -------------------7-----------------7-------------------------------------
     ---------------------------------------------------------------------------


     --------------------------------------------------5-4---4-5-4---7-5-4------
     ---7-9-10-9-7-5------7-9-10-9-7-5------7-9-10-9-7-----7-------7-------5----
     ----------------7-----------------7----------------------------------------
     ---------------------------------------------------------------------------


   The Backing Riff For The Solo:

        G             E              C               D


   There. That was my second tab. If it doesn't sound right,
   then your bass probably isn't tuned.

   HAVE A NICE DAY!!!






Comments