Queensryche - Silent Lucidity Intro Chords & Tabs

 

Silent Lucidity Intro Chords & Tabs

Queensryche Chords & Tabs

Version: 1 Type: Tab 1 rating
1 star 2 stars 3 stars 4 stars 5 stars
comments

Silent Lucidity Intro Tab

[------7------7------5------5------5--------]
[--------0------0------0------0-------------]
[----0------0------0------0------0----------]
[-------------------------------------------]
[-------------------------------------------]
[-------------------------------------------]
[ Tab from: http://www.guitartabs.cc/tabs/q/queensryche/silent_lucidity_intro_tab.html ]
[----2------2-----------------------------------]
[------0------0----3------3------3--------------]
[--------------------0------0-------------------]
[--2------2------2------2------2----------------]
[-----------------------------------------------]
[-----------------------------------------------]

                        it was irritating me that there was only the solo for 
             this song so decided to put the intro in hope you like it
Comments