Queensryche - Roads To Madness Chords & Tabs

 

Roads To Madness Chords & Tabs

Queensryche Chords & Tabs

Version: 1 Type: Tab 0 ratings
1 star 2 stars 3 stars 4 stars 5 stars
comments

Roads To Madness Tab

   
Name: Roads to Madness
Artist: Queensryche
Transcribed by: Me

Riff #1
|---------------------------------------|
|---------------------------------------|
|---------------------------------------|  Repeat x1
|---4-----4-2-----4-----5-5-------------|
|---2-----2-0-----2-----3-3-------------|
|---------------------------------------|

Riff #2
|---------------------------------------|
|---------------------------------------|
|---------------------------------------|
|----------------------------2----------|
|-2-----3-2-----------2--3-2----2--3-2--|
|-0----------3--2h3p2-0---------0------3|

Riff #2 (Cont'd)
|---------------------------------------|
|---------------------------------------|
|---------------------------------------|
|---------------2-----------------------|
|------2-0-2-3--------------------------|
|--2-3----------------------------------|

Repeat Riff #1



Dont really know the Verse, If you know it than you can add it in later.
[ Tab from: http://www.guitartabs.cc/tabs/q/queensryche/roads_to_madness_tab.html ]
Chorus is just Riff #1 repeated, than again after the chorus

Riff #2, then:

Riff #3
|---------------------------------------|
|---------------------------------------|
|---------------------------------------|
|--2-2-2-2-2-2-2-2-4-4-4-4-4-4-4-4-5-5--|
|--0-0-0-0-0-0-0-0-2-2-2-2-2-2-2-2-3-3--|
|---------------------------------------|

|---------------------------------------|
|---------------------------------------|
|---------------------------------------|
|-3-3-5-5-7-----------------------------|
|-5-5-7-7-9-----------------------------|
|---------------------------------------|

Then comes the solo, which I don't really know either (I don' know a lot of parts, do I?)

Then it's:

Riff #4
|---------------------------------------|
|---------------------------------------|
|---------------------------------------|    Repeat throughout ending verse
|--3-2----0-2-3-2-0-3-2-0-2-3-2---0--2--|
|-------------------------------0----2--|
|------------------------------------0--|

There you have it, folks! A crappy rendition of Roads to Madness
Comments