Queensryche - Operation Mindcrime Chords & Tabs

 

Operation Mindcrime Chords & Tabs

Queensryche Chords & Tabs

Version: 1 Type: Bass Tab 0 ratings
1 star 2 stars 3 stars 4 stars 5 stars
comments

Operation Mindcrime Bass Tab

Song: "Operation: Mindcrime"
Artist: Queensryche
Album: Operation Mindcrime
Tabbed by: Randy Cuffe (cisco2000@comcast.net)
http://www.randycuffe.com
Date: 10-12-04

This is all by ear. But its about time somebody wrote a bass
tab for this song already!


Conventions used in this work:
B\A = slide down from fret B to fret A.
A/B = slide up from fret A to fret B.
(#) = let the previous note ring into the current measure,
      but do not play the note again.



(Intro part 1, half-time feel, key of F#minor)
G---------------|---------------|
D---------------|---------------|
A----4----------|-----------7\2-|
E--2---2------2-|--2------------|


G---------------|---------------|
D---------------|---------------|
A---------------|-----------7\2-|
E--2---2--------|--2------------|


G---------------|---------------|
D---------------|---------------|
A----4----------|-----------7\2-|
E--2---2------2-|--2------------|


G---------------|---------------|
D---------------|---------------|
A---------------|----2--0-------|
E--2---2--------|--2------0-----|


(Intro part 2, begin faster feel)
G------------------|------------------|
D------------------|------------------|
A------------------|------------------|
E--2---2-0-2---2-0-|--2---2-0-2---2-0-|


G------------------|----------------|
D------------------|----------------|
A------------------|----------------|
E--2---2-0-2---2-0-|--(0)---------0-|


G------------------|----------------|
D------------------|----------------|
A------------------|----------------|
E--2---2-0-2---2-0-|--2--2-0-2--2-0-|


G------------------|----------------|
D------------------|----------------|
A------------------|----------------|
E--2---2-0-2---2-0-|--(0)-----------|


(1st Verse)
G-------------|---------------|
D-------------|---------------|
A-----------0-|---------------|
E--2-2--------|--2-2----------|


G-------------|---------------|
D-------------|---------------|
A-----------0-|---------------|
E--2-2--------|--0------------|


G-------------|---------------|
D-------------|---------------|
A-----------0-|---------------|
E--2-2--------|--2-2----------|


G-------------|---------------|
D-------------|---------------|
A-----------0-|---------------|
E--2-2--------|--0------------|


(Break between 1st and 2nd verse,
 same as beginning of song, half time feel)
G---------------|---------------|
D---------------|---------------|
A----4----------|-----------7\2-|
E--2---2------2-|--2------------|


G---------------|---------------|
D---------------|---------------|
A----4----------|----2--0-------|
E--2---2------2-|--2------0-----|


(2nd verse)
G-------------|---------------|
D-------------|---------------|
A-----------0-|---------------|
E--2-2--------|--2-2----------|


G-------------|---------------|
D-------------|---------------|
A-----------0-|---------------|
E--2-2--------|--0------------|


G---------------|------------------2-----------|
D---------------|--------------2-4---4-2-------|
A-------------0-|------------4-----------4-2-0-|
E--2--2---------|--2--2------------------------|


G-------------|-----------------|
D-------------|-------------2---|
A-----------0-|---------------2-|
E--2-2--------|--0--------------|


(Pre-chorus, Key change to C#minor)
G-------------------|-----------------|
D------6-----6------|-----------------|
A--4-4---4-4---2-0--|-0-0-0-0-0-0-0-0-|
E-------------------|-----------------|


G-------------------|--------------4----4---|
D------6-----6------|----------2/4----4---4-|
A--4-4---4-4---4-2--|-2-2-2-2---------------|
E-------------------|-----------------------|


G-------------------|-----------------|
D------6-----6------|-----------------|
A--4-4---4-4---2-0--|-0-0-0-0-0-0-0-0-|
E-------------------|-----------------|


G------------|---------------|
D------------|---------------|
A--2---------|--2--------9\2-|
E------------|---------------|


(Chorus, Key change back to F#minor)
G------------------|------------------|
D------------------|------------------|
A------------------|------------------|
E--2---2-0-2---2-0-|--2---2-0-2---2-0-|


G------------------|----------------|
D------------------|----------------|
A------------------|----------------|
E--2---2-0-2---2-0-|--(0)---------0-|

[ Tab from: http://www.guitartabs.cc/tabs/q/queensryche/operation_mindcrime_btab.html ]
G------------------|----------------|
D------------------|----------------|
A------------------|----------------|
E--2---2-0-2---2-0-|--2--2-0-2--2-0-|


G------------------|----------------|
D------------------|----------------|
A------------------|----------------|
E--2---2-0-2---2-0-|--(0)-----------|


(Guitar Solo - Part 1)
G----------------|---------------|
D----------------|---------------|
A--------------0-|---------------|
E---2--2---------|--2--2---------|


G-----------------|---------------------|
D-----------------|---------------------|
A-------------2---|---------------------|
E---2--2--------0-|---2--2--------------|


G----------------|---------------|
D----------------|---------------|
A--------------0-|---------------|
E---2--2---------|--2--2---------|


G-----------------|---------------------|
D------------0----|---------------------|
A-----------------|---------------------|
E---2--2--------0-|---2-2-2-2--2-2-2-2--|


(Guitar Solo - Part 2, Key change to G# Minor)
G--------------------|--------------------------|
D--------------------|--------------------------|
A--------------------|--------------------------|
E--4-4-4-4---4-4-4-4-|-4-4-4-4---4-4-4-4--------|


G-------------------|---------------------------|
D-------------------|---------------------------|
A-------------------|-7-------------------------|
E--0------------4/7-|---------------------------|


G--------------------|--------------------------|
D--------------------|--------------------------|
A--------------------|--------------------------|
E--4-4-4-4---4-4-4-4-|-4-4-4-4---4-4-4-4--------|


G-------------------|----------------------------|
D-------------------|----------------------------|
A-------------------|-7--------------------------|
E--0-----------4/7--|----------------------------|


G--------------------|--------------------------|
D--------------------|--------------------------|
A--------------------|--------------------------|
E--4-4-4-4---4-4-4-4-|-4-4-4-4---4-4-4-4--------|


G-------------------|------------------9--------|
D-------------------|--------------6/9-----9\2--|
A-------------------|-7-------------------------|
E--0-----------4/7--|---------------------------|


G------------------|------------------|
D------------------|------------------|
A--2----2-2-2----2-|-2----2-2-2-----2-|
E------------------|------------------|


(Same as beginning of the song, Key of F# minor)
G---------------|----------------|
D---------------|----------------|
A----4----------|----------2-0---|
E--2---2------2-|--2-----2-----0-|


(Start 3rd verse)
G---------------|-------------|
D---------------|-------------|
A-------------0-|-------------|
E--2--2---------|--2--2-------|


G--------------|-----------------|
D--------------|-----------------|
A------------0-|-----------------|
E--2--2--------|-0---------------|


G---------------|------------------2-----------|
D---------------|--------------2-4---4-2-------|
A-------------0-|------------4-----------4-2-0-|
E--2--2---------|--2--2------------------------|


G--------------|-----------------|
D--------------|-----------------|
A------------0-|-----------------|
E--2--2--------|-0-------------2-|


(Pre-Chorus)
G-------------------|-----------------|
D------6-----6------|-----------------|
A--4-4---4-4---2-0--|-0-0-0-0-0-0-0-0-|
E-------------------|-----------------|


G-------------------|--------------4----4---|
D------6-----6------|----------2/4----4---4-|
A--4-4---4-4---4-2--|-2-2-2-2---------------|
E-------------------|-----------------------|


G-------------------|-----------------|
D------6-----6------|-----------------|
A--4-4---4-4---2-0--|-0-0-0-0-0-0-0-0-|
E-------------------|-----------------|


G------------|---------------|
D------------|---------------|
A--2---------|--2--------9\2-|
E------------|---------------|


(Ending Chorus) REPEAT FIVE (5) TIMES
G------------------|------------------|
D------------------|------------------|
A------------------|------------------|
E--2---2-0-2---2-0-|--2---2-0-2---2-0-|


G------------------|----------------|
D------------------|----------------|
A------------------|----------------|
E--2---2-0-2---2-0-|--(0)---------0-|


Song Conclusion
G------------------|------------------|
D------------------|------------------|
A------------------|------------------|
E--2---2-0-2---2-0-|--2---2-0-2---2-0-|


G---------------------------|
D---------------------------|
A---------------------2-----|
E---2--------2--------------|

http://www.randycuffe.com
Comments