Queensryche - I Dont Believe In Love Chords & Tabs

 

I Dont Believe In Love Chords & Tabs

Queensryche Chords & Tabs

Version: 4 Type: Tab 0 ratings
1 star 2 stars 3 stars 4 stars 5 stars
comments

I Dont Believe In Love Tab

e-----------------------------------------------------------|
B-------10-----8---------11-------10-----8------------6-----|
G--5/7------7-----10--7--7---5/7------7-----10--7-----------|
D--5/7-----------------------5/7-------------------5-----3--|
A--------------------------------------------------3-----1--|
E-----------------------------------------------------------|

e-----------------------------------------------------------|
B-------10-----8---------11-------10-----8------------6-----|
G--5/7------7-----10--7--7---5/7------7-----10--7-----------|
D--5/7-----------------------5/7-------------------5-----3--|
A--------------------------------------------------3-----1--|
E-----------------------------------------------------------|
[ Tab from: http://www.guitartabs.cc/tabs/q/queensryche/i_dont_believe_in_love_tab_ver_4.html ]
Comments