Queensryche - I Dont Believe In Love Chords & Tabs

 

I Dont Believe In Love Chords & Tabs

Queensryche Chords & Tabs

Version: 1 Type: Tab 0 ratings
1 star 2 stars 3 stars 4 stars 5 stars
comments

I Dont Believe In Love Tab

#----------------------------------PLEASE NOTE--------------------------------#
#This file is the author's own work and represents their interpretation of the#
#song. You may only use this file for private study, scholarship, or research.#
#-----------------------------------------------------------------------------#
#-- File created with Instab - http://www.pconline.com/~smcarey/instab.html --#
#-----------------------------------------------------------------------------#

Author/Artist: Queensryche
Title: I Don't Believe In Love
Album: Operation: Mindcrime
Transcribed by: Raven
Email: grans@earthlink.net

1st Time verse/prechorus- play clean
2nd time verse/prechorus- play full chords in prechorus distorted, arppegios cle

an.
3rd time verse/prechorus- only all distorted prechorus, no arppegios.

Just listen to the recording . . .

------------------------------------------------------------------------------
-*------------------8-------11------------------------8--------5--5--6--3--3*-
---5-----7--7--7----7---10---7-------5-----7--7--7----7---10---5--5-/5--3--3--
---5--/--7--7--7----7---7----7-------5--/--7--7--7----7---7----5--5-----3--3--
-*-3-----5--5--5---------------------3-----5--5--5-------------3--3-----1--1*-
------------------------------------------------------------------------------
 intro                                                                        

--0------1------3------0-------------5--------3--------3--------1-------------
--3------3------6------5-----------3--------1--------3--------1-------------*-
--2------3------5------3---------2--------2--------5--------3-----------------
--0------0------0------0-------0--------0--------0--------0-------------------
----------------------------------------------------------------------------*-
------------------------------------------------------------------------------
 first verse                                                                  

--0-----------0-------1----------1-------3----------3-------0---------0-------
--3-----3-------3-----3-----3------3-----6-----6------6-----5-----5-----5---*-
--2--------2------2---3--------3-----3---5-------5------5---3-------3-----3---
--0--0----------------0--0---------------0--0---------------0--0--------------
----------------------------------------------------------------------------*-
------------------------------------------------------------------------------
 pre-chorus                                                                   

---------------|--------------------------------------------------------------
--------------*|------------------8-------11--------------------*-------------
---------------|---5----7--7--7---7---10--7---------------------7-------------
-7-7-7-7-------|---5--/-7--7--7---7---7---7---7-7-7--7-7-7--7-7-7--5-5-7------
-5-5-5-5------*|---3----5--5--5---------------5-5-5--5-5-5--5-5----3-3-5------
---------------|--------------------------------------------------------------
           x8    chorus                                                       

----------------------------------------|------------------|-*-------|-*------
-------*-----------------5-h6------3--*-|------------------|---------|-*8--6--
-------*-----------------5---------3----|--3--------5------|---7--7--|--5--5--
-7-7-7--7-7-7--7-7-7-----5---------3----|--3--------5------|---7--7--|--------
-5-5-5--5-5-5--5-5-5--3--3-----1---1--*-|--1--------3------|---------|--------
----------------------------------------|------------------|---------|--------
                                         end of 2nd repeat |2nd chorus fills  

------------------------------------------------------------------------------
-----------------------------------------------------------------6---8--------
---------------------------7-----8-----3----3----------3-----3---5---7--------
--------0------------------5-----5-----5----5----------3-----2---3---5--------
----5-----5-5-5-5-5-5-5---------------------5--------------------3---5--------
----3-----3-3-3-3-3-3-3-------0-----0-------3-------0-----1-------------------
 solo backing                                                                 

------------------------------------------------------------------------------
------------------8---------------------------------4---------------3---------
------7---8---3---7--------------------5---3--2--3-----3------5---------------
------5---5---5---5--------5----5------3---1--0--1------------5---5---5-------
------------------5--------5----5-----------------------------3---------------
--------0--0---0------------0---3--0------------------------------------------
                                                                              
[ Tab from: http://www.guitartabs.cc/tabs/q/queensryche/i_dont_believe_in_love_tab.html ]
------------------------------------------------------------------------------
------------------------------------------------6----------8------------------
------------------------------------------------8---5----5-----7--------------
--3--5---5--5--5--5---5--5---5--5--5--5----8--------5--5-------7--------------
--3--5---5--5--5--5---8--5---5--5--5--5----6--------3----------5--------------
---------3--3--3-------------3--3--3------------------------------------------
       pm-------                                                              

-13b15--13b15v------11h13p11p10h11p10-8--10--8--6--8b10---8b10v---------------
------------------------------------------------------------------------------
--------------------------------------------------------------------------9---
------------------------------------------------------------------9-10-12-----
------------------------------------------------------------------------------
------------------------------------------------------------------------------
 Guitar Solo                                                                  

----------------------------------------------------------------13-15-13v-----
-----------------------10-11-13---------10-11-13-------10-13-15---------------
-10-12---------9-10-12----------9-10-12----------9-10-------------------------
-------9-10-12----------------------------------------------------------------
------------------------------------------------------------------------------
------------------------------------------------------------------------------
                                                                              

------------------------------------------------------------------------------
-ph4---4----------------------------------------------------------------------
-----\/---ph3--------------2b3-p0---------------------------------------------
-----------\--/--ph4-----------------------8--7-------------------------------
------------\/------\--/--------------8-10-----------------------------6--8---
---------------------\/---------------------------8-8--10-10--6--8--10--------
                                   pm-----                                    

----------------------/18-----------------------------------------------------
---------------------------16v-----15h16p15--13-15-13v--/-11-10-8--6--8-------
------------7--8--10----------------------------------------------------------
---7--8--10-------------------------------------------------------------------
-10---------------------------------------------------------------------------
------------------------------------------------------------------------------
   Harmonizer-G Major 3rds turned on                                          

--------------------------------------------------------------/---------------
-8b10--r8-6-8v----------------------------------------------------------------
-----------------7--8--10--8--7-----------------------------------------------
---------------------------------10--8--10-p8-p7v-----------------------------
------------------------------------------------------------------------------
------------------------------------------------------------------------------
                                                                              

-15*16*15*16*15*16*15*16*15*16*15*16*15---------------------------------------
------------------------------------------------------------------------------
------------------------------------------------------------------------------
------------------------------------------------------------------------------
------------------------------------------------------------------------------
------------------------------------------------------------------------------
 trill                                                                        

------------------------------------------------------------------------------
-------------------------5----------3-------6----5---3---5-------3------------
-------------------------5----------3-------5----5---5---5-------3------------
-------------------------5----------3--------------------5-------3------------
-------------------------3----------1--------------------3-------1------------
------------------------------------------------------------------------------
 end- the pain that you feel . . ..                                           

h  - hammer on
p  - pull off
* - trill
b  - bend (use tremolo bar for downbend)
r  - release bend
/  - slide up
\  - slide down
v  - vibrato
t  - tap (with strumming hand)
x  - fret-hand muting
^ -  natural harmonics
ph- artificial (pinch) harmonics
PM palm mute
					-\----------/----
Lines going diagonally up and down   --\--------/-----
These mean whammy bar                     --\------/-------
 		 -                                    --\----/------
\ - bar down
/- bar up


Comments