Queensryche - Hero Chords & Tabs

 

Hero Chords & Tabs

Queensryche Chords & Tabs

Version: 1 Type: Tab 0 ratings
1 star 2 stars 3 stars 4 stars 5 stars
comments

Hero Tab

Song: Hero
Album: Hear In The Now Frontier
Artist: Queensryche
Tabbed by: Ali Hafeez

Tuning: Half Step Down  Eb Ab Db Gb Bb eb (Low to High)


Intro
Guitar 1 (2 times)
|---------------------------------------------------------
|---------------------------------------------------------
|---9-/-14~--12~-b14-14r12--6-/-9~-\----------------------
|---------------------------------------------------------
|---------------------------------------------------------
|---------------------------------------------------------

Guitar 2 (also the rhythm for the verses)
|---------------------------------------------------------
|---2---2-3-2--2-2-----0---0-1-0--0-0---------------------
|---2---2-2-2--2-2-----0---0-0-0--0-0---------------------
|---2---2-2-2--2-2-----2---2-2-2--2-2---------------------
|---0---0-0-0--0-0-----3---3-3-3--3-3---------------------
|----------------------3---3-3-3--3-3---------------------


Chorus
|-------------------------------
|-------------------------------
|---7---3-------3-2----7---3----
|---7---3---3---3-2----7---3----
|---5---1---3---1-0----5---1----
|-----------1-------------------


2nd Verse Fill in
|-----------------
|-------10h12-8---
|--(/9)-----------
|-----------------
|-----------------
|-----------------

Solo (starts with a volume swell or some effect that sounds like it)
|----------------------------------------------------------------
|-----------------------------------14-15-14----14---------------
|----------------------------12--14----------14-----9~~-9AH-9~~--
|---7--5-7-5--7-7--9b10~r9-7-------------------------------------
|----------------------------------------------------------------
|----------------------------------------------------------------

|----12*--14b15r14--15----15--------------------------
|----------------------14----14b15~r14----14b15^^^^^--
|-------------------------------------14--------------
|-----------------------------------------------------
|-----------------------------------------------------
|-----------------------------------------------------


Interlude
|-----------------------------------
|-----------------------------------
|-----------------------------------
|-----------------------------------
|---8--7--3--2---8--7--3--7---------
|---6--5--1--0---6--5--1--5---------

[ Tab from: http://www.guitartabs.cc/tabs/q/queensryche/hero_tab.html ]
Outro Solo
|---/17-15-17p15---------------------------------
|----------------14-17~-----17-------------------
|------------------------14----14-12--12p11------
|-------------------------------------------12---
|------------------------------------------------
|------------------------------------------------

|----17-15-17p15------------------------------------------------------------
|----------------14-17~-----17----------------------------------------------
|------------------------14----14-12----------------------------------------
|------------------------------------12-14b16-14-12p11-12-11----------------
|------------------------------------------------------------10--10h12-12~--
|---------------------------------------------------------------------------

|-----------------------------------------------------------------------
|-----------------------------------------------------17----15----14----
|---14-14b16-16r14-12-12-11-12-11--------14----16-----------------------
|---------------------------------12--14----14----14-----14----14-------
|-----------------------------------------------------------------------
|-----------------------------------------------------------------------

|------------------------------------------------------------------------
|------------------15----14--------------------14-15-17------------------
|------12----14----------------16--16b18r16-14----------16b18r16-12------
|---14----14----14----14----14-------------------------------------------
|------------------------------------------------------------------------
|------------------------------------------------------------------------

|----------------------------------------------------------------------------------
|----------------------------------------------------------------------------------
|---x\-/9-/-14--12-12b14r12-6/9--9-9-9-7-9-7-7/9-/-14-14b16r14-12-12b14r12-6-/-9~~-
|----------------------------------------------------------------------------------
|----------------------------------------------------------------------------------
|----------------------------------------------------------------------------------

|-------------------------------
|-------------------15--14~--
|---11--12--14--16-----------
|-------------------------------
|-------------------------------
|-------------------------------

END OF TAB

KEY: h - hammer on
     p - pull off
     ~ - hold
     ^ - vibrato
    AH - Artificial Harmonic
     * - Natural Harmonic
     / - slide up
     \ - slide down

NOTE: I don't really think there's any guitars during the Interlude but i think those are the 
chords anyway...the solo's might be a little off as someone was distracting me while i was doing
them..but i think they're pretty close to what it is...the verses are all the same feel free to
improvise on the chords...good luck.

oh yea...comments at weener_dawg@yahoo.com


Comments