Queensryche - Best I Can Chords & Tabs

 

Best I Can Chords & Tabs

Queensryche Chords & Tabs

Version: 1 Type: Tab 0 ratings
1 star 2 stars 3 stars 4 stars 5 stars
comments

Best I Can Tab

   Band: queensryche
   song: best i can

   This is it people, i actually have the best i can solo! and its 100%
   percent correst cause ive seen it on the art of live dvd. Those who
   know this song well, you should know where you are. Great solo! Great
   band!

   E-----------------------------------------------------------------------|
   B-------------5--7--7b8r7--------------5--7--7b8r7----------------------|
   G----------------------------------------------------7b8-7b8-7b8r7-4----|
   D---0\\\\\-------------------0\\\\\-------------------------------------|
   A-----------------------------------------------------------------------|
   E-----------------------------------------------------------------------|

   E-----------------------------------------------------------------------|
   B----10-9-7-9---------------------10-9-7-9--------------5--7--7b8r7-----|
   G---------------7b8-7b8-7b8r7-4-----------------------------------------|
   D---------------------------------------------0\\\\\--------------------|
   A-----------------------------------------------------------------------|
   E-----------------------------------------------------------------------|
[ Tab from: http://www.guitartabs.cc/tabs/q/queensryche/best_i_can_tab.html ]
   E-----------------------------------------------------------------------|
   B---------11-9-8-9----------------------10-9-7-9------------------------|
   G--------------------7b8-7b8-7b8r7-4---------------7b8-7b8-7b8r7-4------|
   D---6-------------------------------------------------------------------|
   A---^-------------------------------------------------------------------|
   E-----------------------------------------------------------------------|

   E-----12-----12-----12-------------12-----12-----12---------------------|
   B-----15b17--15b17--15b17r15--12---15b17--15b17--15b17r15--13-15-12v----|
   G-----------------------------------------------------------------------|
   D-----------------------------------------------------------------------|
   A-----------------------------------------------------------------------|
   E-----------------------------------------------------------------------|

   E-----------------------------------------------------------------------|
   B---12h13-15-13-12-13--12-----12----------------------------------------|
   G----------------------14b15--14r14-14--12-11-12-9v--9-11-12-14-12-11---|
   D-----------------------------------------------------------------------|
   A-----------------------------------------------------------------------|
   E-----------------------------------------------------------------------|

   E-----------------------------------------------------------------------|
   B-----------------------------------------------------------------------|
   G---12--7v\\\\\\\\\-----------------------------------------------------|
   D-----------------------------------------------------------------------|
   A-----------------------------------------------------------------------|
   E-----------------------------------------------------------------------|

   Tab Explanation: \\\ - down with whammy bar
                    b - bend
                    r - release bend
                    ^ - natural harmonic
                    v - vibrato
Comments