Queens Of The Stone Age - You Think I Aint Worth A Dollar Chords & Tabs

 

You Think I Aint Worth A Dollar Chords & Tabs

Queens Of The Stone Age Chords & Tabs

Version: 2 Type: Tab 0 ratings
1 star 2 stars 3 stars 4 stars 5 stars
comments

You Think I Aint Worth A Dollar Tab

   
Tuning:C-F-Ab-Eb-G-C( tune down 2 Steps from standard tuning)
Band: Queens of the Stone Age
Song: "You think I Ain't Worth A Dollar, But I Feel Like A Millionair
Album: Songs For The Deaf
Tab By: Jesse Fish
Key:
~=Vibrato
^=Bend

Main Riff:
----------------------------------------------------|
----------------------------------------------------|
----------------------------------------------------|
---------------------12*---14*----------------------|
----------------------------------------------------|
-000-00-000-00--00----------------------------------|
[ Tab from: http://www.guitartabs.cc/tabs/q/queens_of_the_stone_age/you_think_i_aint_worth_a_dollar_tab_ver_2.html ]
Power Chord Riff:
--------------------------------------------------|
--------------------------------------------------|
--------------------------------------------------|Repeat as needed
--------------------------------------------------|
---7-7-7---5-5-5-5-5-5-5-5-5-5-5-5----------------|
---5-5-5---3-3-3-3-3-3-3-3-3-3-3-3----------------|

*: In the main riff, these notes are sometimes
substituted for one of the following fills,
listen for the appropriate fill.

Fill One:

----------------------------|
----------------------------|
-----------14-12~(or ^)-----|
--12-14-12------------------|
----------------------------|
----------------------------|

Fill Two:

-----------------------------|
-----------------------------|
-------------14^-------------|
-12-14-12-14-----------------|
-----------------------------|
-----------------------------|

Fill Three:

-----------------------------|
-----------------------------|
-12-14-12--------------------|
---------14-12---------------|
--------------14-12----------|
--------------------0--------|

e-mail me at www.metaljesse@cox.net if you have any
suggestions for this tab, or want to post this tab on
your web site.
Comments