Queens Of The Stone Age - You Think I Aint Worth A Dollar Chords & Tabs

 

You Think I Aint Worth A Dollar Chords & Tabs

Queens Of The Stone Age Chords & Tabs

Version: 1 Type: Bass Tab 0 ratings
1 star 2 stars 3 stars 4 stars 5 stars
comments

You Think I Aint Worth A Dollar Bass Tab

Band- Queens Of The Stone Age
Song- You Think I Ain't Worth A Dollar

Tuning:   Down 2 whole steps   == C F Bb Eb ==

This is how it`s played on the CD, and it`s played with a pick.
To get this tuning its easier to tune a 5 string half a step up.


/ ... Slide Up        p ... Pull Off       b ... Bend
\ ... Slide Down      h ... Hammer On      r ... Release Bend


This is all my own work. Enjoy.


4/4 Time

Intro: No Bass

Verse 1
-------

                 ---|
 End of Intro ------|
           ---------|
        ----------3-|


Eb|-----------------|-----------------|-----------------|-----------------|
Bb|-----------------|-----------------|-----------------|-----------------|
F |-----------------|-----------------|-----------------|-----------------| x3
C |-5-0-0-0-0-0-0-0-|-0-0-0-0-0-0-0-3-|-5-0-0-0-0-0-0-0-|-0-0-0-0-0-0-0-3-|

       "Dead..."                           "I be..."
       "Gimme..."                          "Metal..."
       "Gimme..."                          "Gimme..."

Eb|-----------------|-----------------|-----------------|-----------------|
Bb|-----------------|-----------------|-----------------|-----------------|
F |-----------------|-----------------|-----------------|-----------------|
C |-5-0-0-0-0-0-0-0-|-0-0-0-0-0-0-0-3-|-5-0-0-0-0-0-0-0-|-0-0-0-0-5-5---3-|

       "Pressurize..."                     "Deep-fried..."


Chorus 1
--------

Eb|--------------------|--------------------|
Bb|--------------------|--------------------|
F |--------------------|--------------------|
C |-3----3-3--3-3--5-5-|-3-3--3-3--3-3------|


Verse 2
-------

Eb|-----------------|-----------------|-----------------|-----------------|
Bb|-----------------|-----------------|-----------------|-----------------|
F |-----------------|-----------------|-----------------|-----------------|
C |---0-0-0-0-0-0-0-|-0-0-0-0-0-0-0-3-|-5-0-0-0-0-0-0-0-|-0-0-0-0-0-0-0-3-|


Eb|-----------------|-----------------|-----------------|-----------------|
Bb|-----------------|-----------------|-----------------|-----------------|
F |-----------------|-----------------|-----------------|-----------------|
C |-5-0-0-0-0-0-0-0-|-0-0-0-0-0-0-0-3-|-5-0-0-0-0-0-0-0-|-0-0-0-0-0-0-0-3-|


Eb|-----------------|-----------------|-----------------|-----------------|
Bb|-----------------|-----------------|-----------------|-----------------|
F |-----------------|-----------------|-----------------|-----------------| x2
C |-5-0-0-0-0-0-0-0-|-0-0-0-0-0-0-0-3-|-5-0-0-0-0-0-0-0-|-0-0-0-0-0-0-0-3-|

       "Space..."                          "Fortified..."
       "This..."                           "Gimme..."

Eb|-----------------|-----------------|-----------------|-----------------|
Bb|-----------------|-----------------|-----------------|-----------------|
F |-----------------|-----------------|-----------------|-----------------|
C |-5-0-0-0-0-0-0-0-|-0-0-0-0-0-0-0-3-|-5-0-0-0-0-0-0-0-|-0-0-0-0-5-5---3-|

       "Gimme..."                          "Gimme..."


Chorus 2
--------

Eb|-----------12-9-----------------|--------16-14-12----------12----|
Bb|----------------12-9------------|-----------------14-12-14----14-|
F |---------------------12---------|--------------------------------|
C |-3--3-3-----------------------3-|-3--3---------------------------|


Verse 3
-------
[ Tab from: http://www.guitartabs.cc/tabs/q/queens_of_the_stone_age/you_think_i_aint_worth_a_dollar_btab.html ]
The bends are gradual. Use 2 or 3 fingers and bend way up.

Eb|-----------------|-----------------|-----------------|-----------------|
Bb|-----------------|-----------------|-----------------|-----------------|
F |-----------------|-----------------|-----------------|-----------------|
C |---0-0-0-0-0-0-0-|-0-0-0-3b7-------|r3-0-0-0-0-0-0-0-|-0-0-0-3b7-------|


Eb|-----------------|-----------------|-----------------|-----------------|
Bb|-----------------|-----------------|-----------------|-----------------|
F |-----------------|-----------------|-----------------|-----------------|
C |r3-0-0-0-0-0-0-0-|-0-0-0-3b7-------|r3-0-0-0-0-0-0-0-|-0-0-0-3b7-------|


Eb|-----------------|-----------------|-----------------|-----------------|
Bb|-----------------|-----------------|-----------------|-----------------|
F |-----------------|-----------------|-----------------|-----------------|
C |r3-0-0-0-0-0-0-0-|-0--3b7----------|r3-0-0-0-0-0-0-0-|-0--3b7----------|

       "Shrunken..."                       "B movie..."

Eb|-----------------|-----------------|-----------------|-----------------|
Bb|-----------------|-----------------|-----------------|-----------------|
F |-----------------|-----------------|-----------------|-----------------|
C |r3-0-0-0-0-0-0-0-|-0--3b7----------|r3-0-0-0-0-0-0-0-|-0-0-0-0-5-5---3-|

       "Gimme..."                          "B movie..."


Chorus 3
--------

Eb|--------------------|-----------7-9-----------|---
Bb|--------------------|---------------7-9-5-7---|------      Silence
F |--------------------|-----------------------5-|-7-------
C |-3----3-3--3-3--5-5-|-3-3--3-3----------------|------------


Verse 4
-------

                 ---|
 Silence      ------|
           ---------|
        ---------(0)|

               "Oohm!"

Eb|-----------------|-----------------|-----------------|-----------------|
Bb|-----------------|-----------------|-----------------|-----------------|
F |-----------------|-----------------|-----------------|-----------------|
C |---0-0-0-0-0-0-0-|-0-0-0-0-0-0-0-3-|-5-0-0-0-0-0-0-0-|-0-0-0-0-0-0-0-3-|


Eb|-----------------|-----------------|-----------------|-----------------|
Bb|-----------------|-----------------|-----------------|-----------------|
F |-----------------|-----------------|-----------------|-----------------|
C |-5-0-0-0-0-0-0-0-|-0-0-0-0-0-0-0-3-|-5-0-0-0-0-0-0-0-|-0-0-0-0-0-0-0-3-|


Eb|-----------------|-----------------|-----------------|-----------------|
Bb|-----------------|-----------------|-----------------|-----------------|
F |-----------------|-----------------|-----------------|-----------------|
C |-5-0-0-0-0-0-0-0-|-0-0-0-0-0-0-0-3-|-5-0-0-0-0-0-0-0-|-0-0-0-0-0-0-0-3-|

       "Gimme..."                          "Gimme..."

Eb|-----------------|-----------------|-----------------|-----------------|
Bb|-----------------|-----------------|-----------------|-----------------|
F |-----------------|-----------------|-----------------|-----------------|
C |-5-0-0-0-0-0-0-0-|-0-0-0-0-0-0-0-3-|-5-0-0-0-0-0-0-0-|-0-0-0-0-5-5---3-|

       "Gimme..."                          "Gimme..."


Chorus 4
--------

Eb|--------------------|-----------7-9-----------|---
Bb|--------------------|---------------7-9-5-7---|------      End
F |--------------------|-----------------------5-|-7-------
C |-3----3-3--3-3--5-5-|-3-3--3-3----------------|------------
Comments