Queens Of The Stone Age - You Cant Quit Me Baby Chords & Tabs

 

You Cant Quit Me Baby Chords & Tabs

Queens Of The Stone Age Chords & Tabs

Version: 1 Type: Tab 0 ratings
1 star 2 stars 3 stars 4 stars 5 stars
comments

You Cant Quit Me Baby Tab

   
-------------------------------------------------------------------------------
			     SONG NAME - Band Name
-------------------------------------------------------------------------------
Tabbed by: Johan "Buck" Noren
Email: johan.noren@gmail.com

Tuning: As always with the queens, the song is in C-tuning (C F Bb Eb G C)

Vers goes something like this. I think it's slightly palm muted, and it's
strummed pretty randomly. Each chord is played a bar each.

It's a mistake, but who knows. Followed you home.....
C |-------------------------------------------------------------------------|
G |-------------------------------------------------------------------------|
Eb|--12------9--------------------------------------------------------------|
Bb|-------------------------------------------------------------------------|
F |--10------7--------------------------------------------------------------|
C |-------------------------------------------------------------------------|

Fill:

I want you to notice when i'm not around, where ever you are.
C |-------------------------------------------------------------------------|
G |-------------------------------------------------------------------------|
Eb|--14------13-------------------------------------------------------------|
Bb|-------------------------------------------------------------------------|
F |--12------11-------------------------------------------------------------|
C |-------------------------------------------------------------------------|

The vers riff starts at the second again.
[ Tab from: http://www.guitartabs.cc/tabs/q/queens_of_the_stone_age/you_cant_quit_me_baby_tab.html ]
There is a pre-chorus verse fill aswell, you can slide or bend here:
C |-------------------------------------------------------------------------|
G |-------------------------------------------------------------------------|
Eb|---9/12----12/9----------------------------------------------------------|
Bb|-------------------------------------------------------------------------|
F |-------------------------------------------------------------------------|
C |-------------------------------------------------------------------------|

Mini solo before chorus, repeat as many times as needed ;)
C |-------------------------------------------------------------------------|
G |---14b-------------14----------------------------------------------------|
Eb|--------13b--------------------------------------------------------------|
Bb|-------------11b---------------------------------------------------------|
F |-------------------------------------------------------------------------|
C |-------------------------------------------------------------------------|

Chorus:

You're solid gold, i'll see you in hell.
C |-------------------------------------------------------------------------|
G |-------------------------------------------------------------------------|
Eb|---9-9-9-9-9-9-9-8-8-8-8-8-8-8-8-14-14-14-14-14-14-14-14-14-14-14-16-----|
Bb|-------------------------------------------------------------------------|
F |---7-7-7-7-7-7-7-6-6-6-6-6-6-6-6-12-12-12-12-12-12-12-12-12-12-12-14-----|
C |-------------------------------------------------------------------------|

The outro solo is a wierd little piece based somewhat on the mini solo i did
earlier. The riff in the background is the same as the verse riff (which is
in the key of Eb i believe) so you maybe you can work around that.

Fucking awesome song from the self titled album by Queens of the stone age.
Comments