Queens Of The Stone Age - Walking On The Sidewalks Chords & Tabs

 

Walking On The Sidewalks Chords & Tabs

Queens Of The Stone Age Chords & Tabs

Version: 1 Type: Tab 0 ratings
1 star 2 stars 3 stars 4 stars 5 stars
comments

Walking On The Sidewalks Tab

   
Band- Queens Of The Stone Age
Song- Walking On The Sidewalks

****************
*  ^ - strech  *
****************

the song goes in this order:
-intro
-verse
-chorus 1
-verse
-chorus 2
-bridge
-ending+solo
 ______________________________________
| NOTE: Like all Q.O.T.S.A songs this  |
| one too is tuned two tones down      |
| (from C), However the tabs I write   |
| are for more convenient use and      |
| they are tuned regulary (from E) so  |
| you won't have to retune your guitar |
| every time.                          |
|______________________________________|

_____________________________________________________________________________________

INTRO:

--------------------|
----8---------------|
----10^12-----------|
------------------8-|
------------------8-|
8-8-------8-8-8-8---|
play 4 times


C5  A5 Eb5 C5 Bb5 C5
-------------------|
-------------------|
-------8-----------|
10---7-8---10-8-10-|
10---7-6---10-8-10-|
8----5-----8--6-8--|
play 3 times

C5  A5 Eb5
---------|
---------|
-------8-|
10---7-8-|
10---7-6-|
8----5---|


C5  A5 Eb5 C5 Bb5 C5
-------------------|
-------------------|
-------8-----------|
10---7-8---10-8-10-|
10---7-6---10-8-10-|
8----5-----8--6-8--|
play 3 times
(lead goes in here)

C5  A5 Eb5
---------|
---------|
-------8-|
10---7-8-|
10---7-6-|
8----5---|

Lead Guitar -

------------------8--------------------|
8-----------------11^13----------------|
10^12---8-10--------------8-10---------|
-------------8-10--------------10-8----|
------------------------------------10-|
---------------------------------------|

8----------------------------------|
11^13------------------------------|
--------8-10----8----8----10^12^10-|
-------------10--------10----------|
------------------10---------------|
-----------------------------------|

____________________

VERSE:


C5  A5 Eb5 C5 Bb5 C5
-------------------|
-------------------|
-------8-----------|
10---7-8---10-8-10-|
10---7-6---10-8-10-|
8----5-----8--6-8--|
play 8 times


C5  A5 Bb5 C5 Bb5 C5
-------------------|
-------------------|
-------------------|
10---7-8---10-8-10-|
10---7-8---10-8-10-|
8----5-6---8--6-8--|
play 2 times


C5  A5 Eb5 C5 Bb5 C5
-------------------|
-------------------|
-------8-----------|
10---7-8---10-8-10-|
10---7-6---10-8-10-|
8----5-----8--6-8--|
play 6 times

____________________

CHORUS 1:

F5                      E5
----------------------------------------------|
----------------------------------------------|
----------------------------------------------|
3---3-3-3-3---3-3-3-3---2---2-2-2-2---2-2-2-2-|
3---3-3-3-3---3-3-3-3---2---2-2-2-2---2-2-2-2-|
1---1-1-1-1---1-1-1-1---0---0-0-0-0---0-0-0-0-|

C5  A5 Eb5 C5 Bb5 C5
-------------------|
-------------------|
-------8-----------|
10---7-8---10-8-10-|
10---7-6---10-8-10-|
8----5-----8--6-8--|
play 2 times

___________________

CHORUS 2:

F5                      E5
----------------------------------------------|
----------------------------------------------|
----------------------------------------------|
3---3-3-3-3---3-3-3-3---2---2-2-2-2---2-2-2-2-|
3---3-3-3-3---3-3-3-3---2---2-2-2-2---2-2-2-2-|
1---1-1-1-1---1-1-1-1---0---0-0-0-0---0-0-0-0-|

C5  A5 Eb5 C5 Bb5 C5
-------------------|
-------------------|
-------8-----------|
10---7-8---10-8-10-|
10---7-6---10-8-10-|
8----5-----8--6-8--|


C5  A5 Bb5 C5 Bb5 C5
-------------------|
-------------------|
-------------------|
10---7-8---10-8-10-|
10---7-8---10-8-10-|
8----5-6---8--6-8--|
[ Tab from: http://www.guitartabs.cc/tabs/q/queens_of_the_stone_age/walking_on_the_sidewalks_tab.html ]
F5                      E5
----------------------------------------------|
----------------------------------------------|
----------------------------------------------|
3---3-3-3-3---3-3-3-3---2---2-2-2-2---2-2-2-2-|
3---3-3-3-3---3-3-3-3---2---2-2-2-2---2-2-2-2-|
1---1-1-1-1---1-1-1-1---0---0-0-0-0---0-0-0-0-|

C5  A5 Eb5 C5 Bb5 C5
-------------------|
-------------------|
-------8-----------|
10---7-8---10-8-10-|
10---7-6---10-8-10-|
8----5-----8--6-8--|
play 3 times


C5  A5 Eb5
---------|
---------|
-------8-|
10---7-8-|
10---7-6-|
8----5---|
____________________

BRIDGE:

F5                              E5
--------------------------------------------------------|
--------------------------------------------------------|
10---10-10-10-10---10-10-10-10---9---9-9-9-9---9-9-9-9--|
10---10-10-10-10---10-10-10-10---9---9-9-9-9---9-9-9-9--|
8----8--8--8--8----8--8--8--8----7---7-7-7-7---7-7-7-7--|
--------------------------------------------------------|

Eb5                     D5
----------------------------------------------|
----------------------------------------------|
8---8-8-8-8---8-8-8-8---7---7-7-7-7---7-7-7-7-|
8---8-8-8-8---8-8-8-8---7---7-7-7-7---7-7-7-7-|
6---6-6-6-6---6-6-6-6---5---5-5-5-5---5-5-5-5-|
----------------------------------------------|

C#5
----------------------------------------------|
----------------------------------------------|
6---6-6-6-6---6-6-6-6---6---6-6-6-6---6-6-6-6-|
6---6-6-6-6---6-6-6-6---6---6-6-6-6---6-6-6-6-|
4---4-4-4-4---4-4-4-4---4---4-4-4-4---4-4-4-4-|
----------------------------------------------|

C#5
----------------------------------------------|
----------------------------------------------|
6---6-6-6-6---6-6-6-6---6---6-6-6-6---6-6-6-6-|
6---6-6-6-6---6-6-6-6---6---6-6-6-6---6-6-6-6-|
4---4-4-4-4---4-4-4-4---4---4-4-4-4---4-4-4-4-|
----------------------------------------------|
____________________
ENDING+SOLO:

--------------------|
----8---------------|
----10^12-----------|
------------------8-|
------------------8-|
8-8-------8-8-8-8---|
play 57 times
(lead part 1 comes in at the end of the 12th time,
 part 2 at the 53rd time)

----
----
----
----
----
8-8-


Lead guitar-

part 1

----------------------------------------------------|
8-----10----11----11------10----13----13------------|
10^12-12^14-13^15-13^15---12^14-15^17-15^17---------|
----------------------------------------------------|
----------------------------------------------------|
----------------------------------------------------|

----------------------------------|
11------15----15------13----13----|
13^15---17^19-17^19---15^17-15^17-|
----------------------------------|
----------------------------------|
----------------------------------|

------------------------------------------------|
15----------------------------------------------|
17^19-17-14-15----------14^15-------------15^17-|
---------------17-15-17-------15^17^15-13-------|
------------------------------------------------|
------------------------------------------------|

---------------------------------------------------|
---------------------------------------------------|
---------------------------------------------------|
13-15----13----13-15^17-13-15----------15^17-15-17-|
------15----15----------------15-13-15-------------|
---------------------------------------------------|

------------------------------------------------------|
------------------------------------------------------|
---------------------------------15^17----------------|
---------------15^17-13-15----13-------13-15----------|
15-13----13-15-------------15----------------15-13-15-|
------15----------------------------------------------|

*I couldnt figure out the rest becuse its really fast
 and quite but its something on D pentatonic minor
 and it ends on a G


part 2


8-------8-------8-----10------8-----|
11^13---11^13---11^13-13^15---11^13-|
------------------------------------|
------------------------------------|
------------------------------------|
------------------------------------|
Comments