Queens Of The Stone Age - The Sky Is Falling Chords & Tabs

 

The Sky Is Falling Chords & Tabs

Queens Of The Stone Age Chords & Tabs

Version: 3 Type: Tab 0 ratings
1 star 2 stars 3 stars 4 stars 5 stars
comments

The Sky Is Falling Tab

it's probably not the correct transponation and rhytm of course, but if you know the 
you know how to play it ;)


verses:

---------------------------------------------------|
---------------------------------------------------|
--8-8-8-8-8----8-8-8-8-8----8-8-8-8-8----8-8-8-8-8-|
--8-8-8-8-8----8-8-8-8-8----8-8-8-8-8----8-8-8-8-8-|
--6-6-6-6-6----6-6-6-6-6----6-6-6-6-6----6-6-6-6-6-|
---------------------------------------------------|

[ Tab from: http://www.guitartabs.cc/tabs/q/queens_of_the_stone_age/the_sky_is_falling_tab_ver_3.html ]
------------------------------------------------------|
------------------------------------------------------|
------------------------------------------------------|
------------------------------------------------------|
10-10-10-10-10----8-8-8-8-8----8-8-8-8-8----8-8-8-8-8-|
8-8-8-8-8---------9-9-9-9-9----8-8-8-8-8----9-9-9-9-9-|

bridge:

-----------------------------------------------------------|
-----------------------------------------------------------|
-----------------------------------------------------------|
--8-8-8-8-8----8-8-8-8-8----6-6-6-6-6----10-10-10-10-10----|
--6-6-6-6-6----5-5-5-5-5----4-4-4-4-4----8-8-8-8-8---------|
-----------------------------------------------------------|


chorus:

-----------------------------------------------------------|
-----------------------------------------------------------|
-----------------------------------------------------------|
--8-8-8-8-8----10-10-10-10-10------------------------------|
--6-6-6-6-6----6-6-6-6-6----------8-8-8-8-8----8-8-8-8-8---|
----------------------------------5-5-5-5-5----5-5-5-5-5---|

done by knirt@gmx.net
Comments