Queens Of The Stone Age - The Lost Art Of Keeping A Secret Chords & Tabs

 

The Lost Art Of Keeping A Secret Chords & Tabs

Queens Of The Stone Age Chords & Tabs

Version: 4 Type: Tab 0 ratings
1 star 2 stars 3 stars 4 stars 5 stars
comments

The Lost Art Of Keeping A Secret Tab

This is a pretty good song by Q.O.T.S.A, I've beein playing this song for quite
a while then realised that no-one had tabbed the song the way I play it so here
it is!
in_your_world@hotmail.co.uk
This song is in standard tuning(from E)even though its from c(like most q.o.t.s.a
songs)its just easier this way cos then u dont hav 2 retune as well.

Intro:
--------------------------------------------------------------------|
--------------------------------------------------------6^8-6-4-----|
5-5-5-5-5-5-5-5-------------------------------------------------5---| play
5-5-5-5-5-5-5-5-5-5-5-5-5-5-5-5-4-4-4-4-4-4-4-4-3-3-3-3-------------| twice
3-3-3-3-3-3-3-3-5-5-5-5-5-5-5-5-4-4-4-4-4-4-4-4-3-3-3-3-------------|
----------------3-3-3-3-3-3-3-3-2-2-2-2-2-2-2-2-1-1-1-1-------------|

Verse:
---------------------------------------------------------|
---------------------------------------------------------|
5-5-5-5-5-5-5-5------------------------------------------|
5-5-5-5-5-5-5-5-5-5-5-5-5-5-5-5-4-4-4-4-4-4-4-4-3-3-3-3--|
3-3-3-3-3-3-3-3-5-5-5-5-5-5-5-5-4-4-4-4-4-4-4-4-3-3-3-3--|
----------------3-3-3-3-3-3-3-3-2-2-2-2-2-2-2-2-1-1-1-1--|

--------------------------------------------------------------------|
--------------------------------------------------------6^8-6-4-----|
5-5-5-5-5-5-5-5-------------------------------------------------5---|
5-5-5-5-5-5-5-5-5-5-5-5-5-5-5-5-4-4-4-4-4-4-4-4-3-3-3-3-------------|
3-3-3-3-3-3-3-3-5-5-5-5-5-5-5-5-4-4-4-4-4-4-4-4-3-3-3-3-------------|
----------------3-3-3-3-3-3-3-3-2-2-2-2-2-2-2-2-1-1-1-1-------------|

---------------------------------------------------------|
---------------------------------------------------------|
5-5-5-5-5-5-5-5------------------------------------------|
5-5-5-5-5-5-5-5-5-5-5-5-5-5-5-5-4-4-4-4-4-4-4-4-3-3-3-3--|
3-3-3-3-3-3-3-3-5-5-5-5-5-5-5-5-4-4-4-4-4-4-4-4-3-3-3-3--|
----------------3-3-3-3-3-3-3-3-2-2-2-2-2-2-2-2-1-1-1-1--|

Chorus:
--------------------------------------------------------------------|
--------------------------------------------------------------------|
5-5-5-5-5-5-5-5---------------------------------8-8-8-8-8-10-10-12--|
5-5-5-5-5-5-5-5-5-5-5-5-5-5-5-5-4-4-4-4-4-4-4-4-8-8-8-8-8-10-10-12--|
3-3-3-3-3-3-3-3-5-5-5-5-5-5-5-5-4-4-4-4-4-4-4-4-6-6-6-6-6-8--8--10--|
----------------3-3-3-3-3-3-3-3-2-2-2-2-2-2-2-2---------------------|

--------------------------------------------------------------------|
--------------------------------------------------------------------|
5-5-5-5-5-5-5-5---------------------------------8-8-8-8-8-10-10-12--|
5-5-5-5-5-5-5-5-5-5-5-5-5-5-5-5-4-4-4-4-4-4-4-4-8-8-8-8-8-10-10-12--|
3-3-3-3-3-3-3-3-5-5-5-5-5-5-5-5-4-4-4-4-4-4-4-4-6-6-6-6-6-8--8--10--|
----------------3-3-3-3-3-3-3-3-2-2-2-2-2-2-2-2---------------------|

Verse2:
--------------------------------------------------------------------|
--------------------------------------------------------6^8-6-4-----|
5-5-5-5-5-5-5-5-------------------------------------------------5---|
5-5-5-5-5-5-5-5-5-5-5-5-5-5-5-5-4-4-4-4-4-4-4-4-3-3-3-3-------------|
3-3-3-3-3-3-3-3-5-5-5-5-5-5-5-5-4-4-4-4-4-4-4-4-3-3-3-3-------------|
----------------3-3-3-3-3-3-3-3-2-2-2-2-2-2-2-2-1-1-1-1-------------|

--------------------------------------------------------------------|
--------------------------------------------------------6^8-6-4-----|
5-5-5-5-5-5-5-5-------------------------------------------------5---|
5-5-5-5-5-5-5-5-5-5-5-5-5-5-5-5-4-4-4-4-4-4-4-4-3-3-3-3-------------|
3-3-3-3-3-3-3-3-5-5-5-5-5-5-5-5-4-4-4-4-4-4-4-4-3-3-3-3-------------|
----------------3-3-3-3-3-3-3-3-2-2-2-2-2-2-2-2-1-1-1-1-------------|

---------------------------------------------------------|
---------------------------------------------------------|
5-5-5-5-5-5-5-5------------------------------------------|
5-5-5-5-5-5-5-5-5-5-5-5-5-5-5-5-4-4-4-4-4-4-4-4-3-3-3-3--|
3-3-3-3-3-3-3-3-5-5-5-5-5-5-5-5-4-4-4-4-4-4-4-4-3-3-3-3--|
----------------3-3-3-3-3-3-3-3-2-2-2-2-2-2-2-2-1-1-1-1--|

---------------------------------------------------------|
---------------------------------------------------------|
5-5-5-5-5-5-5-5------------------------------------------|
5-5-5-5-5-5-5-5-5-5-5-5-5-5-5-5-4-4-4-4-4-4-4-4-3-3-3-3--|
3-3-3-3-3-3-3-3-5-5-5-5-5-5-5-5-4-4-4-4-4-4-4-4-3-3-3-3--|
----------------3-3-3-3-3-3-3-3-2-2-2-2-2-2-2-2-1-1-1-1--|

Chorus:
--------------------------------------------------------------------|
--------------------------------------------------------------------|
5-5-5-5-5-5-5-5---------------------------------8-8-8-8-8-10-10-12--|
5-5-5-5-5-5-5-5-5-5-5-5-5-5-5-5-4-4-4-4-4-4-4-4-8-8-8-8-8-10-10-12--|
3-3-3-3-3-3-3-3-5-5-5-5-5-5-5-5-4-4-4-4-4-4-4-4-6-6-6-6-6-8--8--10--|
----------------3-3-3-3-3-3-3-3-2-2-2-2-2-2-2-2---------------------|
[ Tab from: http://www.guitartabs.cc/tabs/q/queens_of_the_stone_age/the_lost_art_of_keeping_a_secret_tab_ver_4.html ]
--------------------------------------------------------------------|
--------------------------------------------------------------------|
5-5-5-5-5-5-5-5---------------------------------8-8-8-8-8-10-10-12--|
5-5-5-5-5-5-5-5-5-5-5-5-5-5-5-5-4-4-4-4-4-4-4-4-8-8-8-8-8-10-10-12--|
3-3-3-3-3-3-3-3-5-5-5-5-5-5-5-5-4-4-4-4-4-4-4-4-6-6-6-6-6-8--8--10--|
----------------3-3-3-3-3-3-3-3-2-2-2-2-2-2-2-2---------------------|

--------------------------------------------------------------------|
--------------------------------------------------------------------|
5-5-5-5-5-5-5-5-----------------8-8-8-8-8-8-8-8-8-7-7-7-7-6-6-6-6---|
5-5-5-5-5-5-5-5-4-4-4-4-4-4-4-4-8-8-8-8-8-8-8-8-8-7-7-7-7-6-6-6-6---|
3-3-3-3-3-3-3-3-4-4-4-4-4-4-4-4-6-6-6-6-6-6-6-6-6-5-5-5-5-4-4-4-4---|
----------------2-2-2-2-2-2-2-2-------------------------------------|

--------------------------------------------------------------------|
--------------------------------------------------------------------|
5-5-5-5-5-5-5-5---------------------------------8-8-8-8-8-10-10-12--|
5-5-5-5-5-5-5-5-5-5-5-5-5-5-5-5-4-4-4-4-4-4-4-4-8-8-8-8-8-10-10-12--|
3-3-3-3-3-3-3-3-5-5-5-5-5-5-5-5-4-4-4-4-4-4-4-4-6-6-6-6-6-8--8--10--|
----------------3-3-3-3-3-3-3-3-2-2-2-2-2-2-2-2---------------------|

Bridge:
----------------------------------------------------------------|
----------------------------------------------------------------|
----------------------------------------------------------------|
4-4-4-4-4-4-4-4-4-4-4-4-4-4-4-4-6-6-6-6-6-6-6-6-6-6-6-6-6-6-6-6-|
4-4-4-4-4-4-4-4-4-4-4-4-4-4-4-4-6-6-6-6-6-6-6-6-6-6-6-6-6-6-6-6-|
2-2-2-2-2-2-2-2-2-2-2-2-2-2-2-2-4-4-4-4-4-4-4-4-4-4-4-4-4-4-4-4-|

----------------------------------------------------------------|
----------------------------------------------------------------|
5X-5X-5X-5X-5X-5X-5X-5X-5X-5X-5X-5X-5X-5X-5X--------------------|
5X-5X-5X-5X-5X-5X-5X-5X-5X-5X-5X-5X-5X-5X-5X--------------------|
3X-3X-3X-3X-3X-3X-3X-3X-3X-3X-3X-3X-3X-3X-3X--------------------|
----------------------------------------------------------------|

------------------------------------------------------------------|
------------------------------------------------------------------|
------------------------------------------------------------------|
4-4-4-4-4-4-4-4-4-4-4-4-4-4-4-4-6-6-6-6-6-6-6-6-6-6-6-6-6-6-6-6-5-|
4-4-4-4-4-4-4-4-4-4-4-4-4-4-4-4-6-6-6-6-6-6-6-6-6-6-6-6-6-6-6-6-5-|
2-2-2-2-2-2-2-2-2-2-2-2-2-2-2-2-4-4-4-4-4-4-4-4-4-4-4-4-4-4-4-4-3-|

Solo:
----8-----11-9---------8-----11-9---------8-----11----14----14----14-------|
7-8-11^13----12^14-7-8-11^13----12^14-7-8-11^13-14^16-17^19-17^19-17^19----|
---------------------------------------------------------------------------|
---------------------------------------------------------------------------|
---------------------------------------------------------------------------|
---------------------------------------------------------------------------|

Chorus:
--------------------------------------------------------------------|
--------------------------------------------------------------------|
5-5-5-5-5-5-5-5---------------------------------8-8-8-8-8-10-10-12--|
5-5-5-5-5-5-5-5-5-5-5-5-5-5-5-5-4-4-4-4-4-4-4-4-8-8-8-8-8-10-10-12--|
3-3-3-3-3-3-3-3-5-5-5-5-5-5-5-5-4-4-4-4-4-4-4-4-6-6-6-6-6-8--8--10--|
----------------3-3-3-3-3-3-3-3-2-2-2-2-2-2-2-2---------------------|

--------------------------------------------------------------------|
--------------------------------------------------------------------|
5-5-5-5-5-5-5-5---------------------------------8-8-8-8-8-10-10-12--|
5-5-5-5-5-5-5-5-5-5-5-5-5-5-5-5-4-4-4-4-4-4-4-4-8-8-8-8-8-10-10-12--|
3-3-3-3-3-3-3-3-5-5-5-5-5-5-5-5-4-4-4-4-4-4-4-4-6-6-6-6-6-8--8--10--|
----------------3-3-3-3-3-3-3-3-2-2-2-2-2-2-2-2---------------------|

--------------------------------------------------------------------|
--------------------------------------------------------------------|
5-5-5-5-5-5-5-5-----------------8-8-8-8-8-8-8-8-8-7-7-7-7-6-6-6-6---|
5-5-5-5-5-5-5-5-4-4-4-4-4-4-4-4-8-8-8-8-8-8-8-8-8-7-7-7-7-6-6-6-6---|
3-3-3-3-3-3-3-3-4-4-4-4-4-4-4-4-6-6-6-6-6-6-6-6-6-5-5-5-5-4-4-4-4---|
----------------2-2-2-2-2-2-2-2-------------------------------------|

--------------------------------------------------------------------|
--------------------------------------------------------------------|
5-5-5-5-5-5-5-5-----------------8-8-8-8-8-8-8-8-8-7-7-7-7-6-6-6-6---|
5-5-5-5-5-5-5-5-4-4-4-4-4-4-4-4-8-8-8-8-8-8-8-8-8-7-7-7-7-6-6-6-6---|
3-3-3-3-3-3-3-3-4-4-4-4-4-4-4-4-6-6-6-6-6-6-6-6-6-5-5-5-5-4-4-4-4---|
----------------2-2-2-2-2-2-2-2-------------------------------------|

Outro:
-----------------------|
-----------------------|
5-5-5-5-5-8----10--12--| play 4 times
5-5-5-5-5-8----10--12--|
3-3-3-3-3-6----8---10--|
-----------------------|
Comments