Queens Of The Stone Age - Tension Head Chords & Tabs

 

Tension Head Chords & Tabs

Queens Of The Stone Age Chords & Tabs

Version: 1 Type: Bass Tab 0 ratings
1 star 2 stars 3 stars 4 stars 5 stars
comments

Tension Head Bass Tab

   
Band- Queens Of The Stone Age
Song- Tension Head

C F D# A# Of course.

intro:
----------------------|
----------------------|
-----7-6---5----------|
---0-----7---6-0-5-0*-| this is traditonally on guitar, but I find it cool to play anyway.

riff 1:
----------------------------------------------------------|
----------------------------------------------------------|
--\7-7-7-7---\7-7-7-7---\7-7-7-7---\7-7-7-7---7-9-10-12---|
------------0----------0----------0-----------------------|
[ Tab from: http://www.guitartabs.cc/tabs/q/queens_of_the_stone_age/tension_head_btab.html ]
chorus:
--------------------------------------|----------------------------------------|
--------------------------5-----------|----------------------------17----------|
-----6-7-6------------6-7-------------|-----6-7-6------------18-19-------------|
---0--------7-7-6-6-0--------7-7-6-6--|---0--------7-7-6-6-0----------7-7-6-6--|

bridge:
-----------------------------------------------------------------------|
-----------------------------------------------------------------------|
---6h7-7-6h7-7-6h7-----------------------------------------------------|
-------------------2h3-3-2h3-3-2h3--4h5-5-4h5-5-4h5--2h3-3-2h3-3-2h3---|

Intro
Riff 1 x8
Chorus
Riff 1 x8
Chorus
Bridge
Intro
Riff 1 x8
End Chorus

End Chorus:
-------------------------------------|--------------------------------------------|
--------------------------5----------|--------------------------------------------|
-----6-7-6------------6-7------------|-----6-7-6-------6-7-6------6-7-6---6-7-6---|
---0--------7-7-6-6-0--------7-7-6-6-|---0--------7--0-------7--0------7-0------0-|
Comments