Queens Of The Stone Age - Song For The Deaf Chords & Tabs

 

Song For The Deaf Chords & Tabs

Queens Of The Stone Age Chords & Tabs

Version: 1 Type: Bass Tab 0 ratings
1 star 2 stars 3 stars 4 stars 5 stars
comments

Song For The Deaf Bass Tab

Band- Queens Of The Stone Age
Song- Song For The Deaf

intro (0:04)
|--------------------------------------------------|    |
|----------------6--6------------------------------|    |
|--8-7--8-7--8-7------8-7--------------------------|    |
|-0----0----0--------------------------------------| x 2|
|								  
|--------------------------------------------------|	  |
|----------------6--6-------9---6------6--6--------|	  |
|--8-7--8-7--8-7------8-7-----------8-7-----8-7----|	  |
|-0----0----0-------------0---0---0----------------| x 2|


verse (0:27)
|---------------------------|     |
|----------------6--6-------|     |
|--8-7--8-7--8-7------8-7---|     |
|-0----0----0---------------| x 10|


chorus (1:03)
|----------------------------------|    |
|----------------------------------|    |
|--5-444444-999999-555555-555555---|    |
|----------------------------------| x 1|
|					     
|----------------------------------|    |
|----------------------------------|    |
|--5-444444-999999-5---------------|    |
|----------------------------------| x 1|

hold down the last note

bridge (1:18)
|---------------------------|    |
|----------------6--6-------|    |
|--8-7--8-7--8-7------8-7---|    |
|-0----0----0---------------| x 2|

solo (1:24)
|----------------------------|    |
|----------------------------|    |
|---5---5-0-----7---7h8h7----|    |
|-0---0-----3-0---0----------| x 2|

listen to the song reeeeeeeeaaaaal hard for timing

verse 2 (1:39)
|---------------------------|     |
|----------------6--6-------|     |
|--8-7--8-7--8-7------8-7---|     |
|-0----0----0---------------| x 10|
[ Tab from: http://www.guitartabs.cc/tabs/q/queens_of_the_stone_age/song_for_the_deaf_btab.html ]
chorus (2:14)
|----------------------------------|    |
|----------------------------------|    |
|--5-444444-999999-555555-555555---|    |
|----------------------------------| x 3|
|					
|----------------------------------|    |
|----------------------------------|    |
|--5-444444-999999-5---------------|    |
|----------------------------------| x 1|

bass solo (2:43)

|--------------------------------------------------|    |
|----------------6--6------------------------------|    |
|--8-7--8-7--8-7------8-7--------------------------|    |
|-0----0----0--------------------------------------| x 4|
|								   |	  |
|--------------------------------------------------|	  |
|----------------6--6-------9---6------6--6--------|	  |
|--8-7--8-7--8-7------8-7-----------8-7-----8-7----|	  |
|-0----0----0-------------0---0---0----------------| x 2|

solo (3:13)
|----------------------------|    |
|----------------------------|    |
|---5---5-0-----7---7h8h7----|    |
|-0---0-----3-0---0----------| x 4|

verse 3 (3:40)
|---------------------------------------------------------|    |
|-------5-5-----------5-5-----------5-5-----------6-6-----|    |
|---6-7-----7-6---6-7-----7-6---6-7-----7-6---6-7-----7-6-|    |
|-0-------------0-------------0-------------0-------------| x 1|
|									    
|---------------------------------------------------------|    |
|-------5-5-----------5-5-----------6-6-----------6-6-----|    |
|---6-7-----7-6---6-7-----7-6---6-7-----7-6---6-7-----7-6-|    |
|-0-------------0-------------0-------------0-------------| x 3| 

chorus (4:08)
|----------------------------------|    |
|----------------------------------|    |
|--5-444444-999999-555555-555555---|    |
|----------------------------------| x 3|
|					   
|----------------------------------|    |
|----------------------------------|    |
|--5-444444-999999-5---------------|    |
|----------------------------------| x 1|
Comments