Queens Of The Stone Age - Someones In The Wolf Chords & Tabs

 

Someones In The Wolf Chords & Tabs

Queens Of The Stone Age Chords & Tabs

Version: 1 Type: Tab 0 ratings
1 star 2 stars 3 stars 4 stars 5 stars
comments

Someones In The Wolf Tab

I think I got most of this correct but I'm working out a few things, so here's the intro 
far.

Standard Tuning
e:-----------------------------------------|
B:-----------------------------------------|
G:-----------------------------------------|
D:-----------------------------------------|
A:-8----8----8-8-8-----8----8----8-8-8-----|
E:-6p0--6p0--6-6-6p0---6p0--6p0--6-6-6p0---|

[ Tab from: http://www.guitartabs.cc/tabs/q/queens_of_the_stone_age/someones_in_the_wolf_tab.html ]
e:--------------------------|
B:--------------------------|
G:-6-6-6-6-7-7-8-8-8-8-9-9--|
D:--------------------------|
A:-4-4-4-4-5-5-6-6-6-6-7-7--|
E:--------------------------|

And I think the verse goes kinda like this:
e:------------------------------------------------------------|
B:------------------------------------------------------------|
G:----------6-----------6------------6------6-6-6-5-----6-----|
D:------------5-----------5------------5------------5-6---5---|
A:------------------------------------------------------------|
E:--5-5-5-5------5-5-5-5------5-5-5-5-------------------------|

This is all that I've got so far. Rate it if you'd like to.
Comments