Queens Of The Stone Age - Someones In The Wolf Chords & Tabs

 

Someones In The Wolf Chords & Tabs

Queens Of The Stone Age Chords & Tabs

Version: 1 Type: Bass Tab 0 ratings
1 star 2 stars 3 stars 4 stars 5 stars
comments

Someones In The Wolf Bass Tab

   
Band- Queens Of The Stone Age
Song- Someones In The Wolf

(E A D G) - \'Bass Guitar\'(standard) 

 Intro
  
 
  Gtr I
  S E S S E S S S S S S E S   S E S S E S S S S S S E S
|-2-------------------------|---------------------------|
|---------------------------|---------------------------|
|-4-----4-----4---4---4-----|-4-----4-----4---4---4-----|
|---3-3---3-3---3---3---3-3-|---3-3---3-3---3---3---3-3-|


  S S S S E S S S S S S E S S   S S S S E S S S S S S E S S
|-----------------------------|-----------------------------|
|-----------------------------|-----------------------------|
|-----------------------------|-----------------------------|
|-1h3-3-3---3---1h3-3-3---3---|-1h3-3-3---3---1h3-3-3---3---|


  S S S S S S S S S S S S S S S S   S S S S S S S S S S S S S S S S
|---------------------------------|---------------------------------|
|-5-5-5-5---------5-5-5-5---------|-5-5-5-5-----5p3-5-5-5-5---------|
|---------------------------------|---------------------------------|
|---------3-3-3-3---------3-3-3-3-|---------3-3-------------3-3-3-3-|


  S E S S E S S S S S S E S   S E S S E S S S S S S E S
|---------------------------|---------------------------|
|---------------------------|---------------------------|
|-4-----4-----4---4---4-----|-4-----4-----4---4---4-----|
|---3-3---3-3---3---3---3-3-|---3-3---3-3---3---3---3-3-|


   Verse 1
    S S S S E S S S S S S E S S   S S S S E S S S S S S E S S  6x
||------------------------------|------------------------------||
||o-----------------------------|-----------------------------o||
||o-----------------------------|-----------------------------o||
||--3-3-3-3---3---3-3-3-3---3---|-3-3-3-3---3---3-3-3-3---3----||


   Pre-Chorus
    S S S S E S S S S S S Q    S S S S Q  S S S S E S S
||---------------------------|----------------------------||
||o--------------------------|---------------------------o||
||o--------------------------|---------------------------o||
||--3-3-3-3---3---3-3-3-3----|-3-3-3-3----3-3-3-3---3-----||


   Verse 2
    S S S S E S S S S S S E S S   S S S S E S S S S S S E S S  4x
||------------------------------|------------------------------||
||o-----------------------------|-----------------------------o||
||o-----------------------------|-----------------------------o||
||--3-3-3-3---3---3-3-3-3---3---|-3-3-3-3---3---3-3-3-3---3----||


   Pre-Chorus
    S S S S Q  S S S S Q    S S S S Q  S S S S E S S  4x
||------------------------|---------------------------||
||o-----------------------|--------------------------o||
||o-----------------------|--------------------------o||
||--3-3-3-3----3-3-3-3----|-3-3-3-3----3-3-3-3---3----||


   Chorus 1
    S S +Q    E S S +Q    E   S E S S E S S E S S E S  4x
||--------------------------|--------------------------||
||o-------------------------|-------------------------o||
||o-------------------------|-4-----4-----4-----4-----o||
||--3-3-(3)/----3-3-(3)/----|---3-3---3-3---3-3---3-3--||


 Bridge
  S S S S E S S S S S S E S S   S S S S E S S S S S S E S S
|-----------------------------|-----------------------------|
|-----------------------------|-----------------------------|
|-----------------------------|-----------------------------|
|-1h3-3-3---3---1h3-3-3---3---|-1h3-3-3---3---1h3-3-3---3---|


  S S S S S S S S S S S S S S S S   S S S S S S S S S S S S S S S S
|---------------------------------|---------------------------------|
|-5-5-5-5---------5-5-5-5---------|-5-5-5-5-----5p3-5-5-5-5---------|
|---------------------------------|---------------------------------|
|---------3-3-3-3---------3-3-3-3-|---------3-3-------------3-3-3-3-|


    S E S S E S S S S S S E S   S E S S E S S S S S S E S
||----------------------------|-----------------------------||
||o---------------------------|----------------------------o||
||o-4-----4-----4---4---4-----|-4-----4-----4---4---4------o||
||----3-3---3-3---3---3---3-3-|---3-3---3-3---3---3---3-3---||


   Verse 3
    S S S S E S S S S S S E S S   S S S S E S S S S S S E S S  6x
||------------------------------|------------------------------||
||o-----------------------------|-----------------------------o||
||o-----------------------------|-----------------------------o||
||--3-3-3-3---3---3-3-3-3---3---|-3-3-3-3---3---3-3-3-3---3----||


   Pre-Chorus
    S S S S Q  S S S S Q    S S S S Q  S S S S E S S  4x
||------------------------|---------------------------||
||o-----------------------|--------------------------o||
||o-----------------------|--------------------------o||
||--3-3-3-3----3-3-3-3----|-3-3-3-3----3-3-3-3---3----||

[ Tab from: http://www.guitartabs.cc/tabs/q/queens_of_the_stone_age/someones_in_the_wolf_btab.html ]
   Verse 4
    S S S S E S S S S S S E S S   S S S S E S S S S S S E S S  4x
||------------------------------|------------------------------||
||o-----------------------------|-----------------------------o||
||o-----------------------------|-----------------------------o||
||--3-3-3-3---3---3-3-3-3---3---|-3-3-3-3---3---3-3-3-3---3----||


   Chorus 2
    S S +Q    E S S +Q    E   S E S S E S S E S S E S  4x
||--------------------------|--------------------------||
||o-------------------------|-------------------------o||
||o-------------------------|-4-----4-----4-----4-----o||
||--3-3-(3)/----3-3-(3)/----|---3-3---3-3---3-3---3-3--||


   Interlude
    A E. +S   Q  A E. +S   Q    A E. +S   H.    13x
||----------------------------|------------------||
||o---------------------------|-----------------o||
||o---------------------------|-----------------o||
||--1h3--(3)----1h3--(3)----|-1h3--(3)--------||


   Chorus 3
    A E. +S   Q  A E. +S   Q    A E. +S   Q  A E. +S   Q   4x
||----------------------------|----------------------------||
||o---------------------------|---------------------------o||
||o---------------------------|---------------------------o||
||--1h3--(3)----1h3--(3)----|-1h3--(3)----1h3--(3)-----||


                              Q=90
  a E. +S   Q  a E. +S   Q    S E S S E S S E S S E S
|---------------------------|-------------------------|
|---------------------------|-3-----------------------|
|---------------------------|-------5-----4-----2-----|
|-1h3--(3)----1h3--(3)----|---3-3---3-3---3-3---3-3-|


 Outro
  S S S S E S S S S S S E S S   S S S S E S S S S S S E S S
|-----------------------------|-----------------------------|
|-----------------------------|-----------5p3---------------|
|-----------------------------|-----------------------------|
|-1h3-3-3---3---1h3-3-3---3---|-1h3-3-3-------1h3-3-3---3---|


  H=H
  S S S S E S S S S S S E S S   S S S S E S S S S S S E S S
|-----------------------------|-----------------------------|
|-----------------------------|-----------5p3---------------|
|-----------------------------|-----------------------------|
|-1h3-3-3---3---1h3-3-3---3---|-1h3-3-3-------1h3-3-3---3---|


  S S S S E S S S S S S E S S   S S S S E S S S S S S E S S
|-----------------------------|-----------------------------|
|-----------------------------|-----------5p3---------------|
|-----------------------------|-----------------------------|
|-1h3-3-3---3---1h3-3-3---3---|-1h3-3-3-------1h3-3-3---3---|


  S S S S E S S S S S S E S S   S S S S E S S S S S S E S S
|-----------------------------|-----------------------------|
|-----------------------------|-----------5p3---------------|
|-----------------------------|-----------------------------|
|-1h3-3-3---3---1h3-3-3---3---|-1h3-3-3-------1h3-3-3---3---|


  S S S S E S S S S S S E S S   S S S S E S S S S S S E S S
|-----------------------------|-----------------------------|
|-----------------------------|-----------5p3---------------|
|-----------------------------|-----------------------------|
|-1h3-3-3---3---1h3-3-3---3---|-1h3-3-3-------1h3-3-3---3---|


  S S S S E S S S S S S E S S   S S S S E S S S S S S E S S
|-----------------------------|-----------------------------|
|-----------------------------|-----------5p3---------------|
|-----------------------------|-----------------------------|
|-1h3-3-3---3---1h3-3-3---3---|-1h3-3-3-------1h3-3-3---3---|


  S S S S E S S S S S S E S S   S S S S E S S S S S S E S S
|-----------------------------|-----------------------------|
|-----------------------------|-----------5p3---------------|
|-----------------------------|-----------------------------|
|-1h3-3-3---3---1h3-3-3---3---|-1h3-3-3-------1h3-3-3---3---|


  Q=120
  S S S S E S S S S S S E S S   S S S S E S S S S S S E S S
|-----------------------------|-----------------------------|
|-----------------------------|-----------5p3---------------|
|-----------------------------|-----------------------------|
|-1h3-3-3---3---1h3-3-3---3---|-1h3-3-3-------1h3-3-3---3---|


  Q=95
  S E S S E S S S S S S E S   S E S S E S S S S S S E S
|---------------------------|---------------------------|
|---------------------------|---------------------------|
|-4-----4-----4---4---4-----|-4-----4-----4---4---4-----|
|---3-3---3-3---3---3---3-3-|---3-3---3-3---3---3---3-3-|


  S E S S E S S S S S S E S   S E S S E S S S S S S E
|---------------------------|--------------------------*|
|---------------------------|--------------------------*|
|-4-----4-----4---4---4-----|-4-----4-----4---4---4----*|
|---3-3---3-3---3---3---3-3-|---3-3---3-3---3---3------*|
Comments