Queens Of The Stone Age - Six Shooter Chords & Tabs

 

Six Shooter Chords & Tabs

Queens Of The Stone Age Chords & Tabs

Version: 1 Type: Bass Tab 0 ratings
1 star 2 stars 3 stars 4 stars 5 stars
comments

Six Shooter Bass Tab

Band- Queens Of The Stone Age
Song- Six Shooter

riff1
G|----------------------------------|
D|----------------------------------|
A|----------------5---5-------------|
E|--0---2-3-2-0-----------3---3-----|
[ Tab from: http://www.guitartabs.cc/tabs/q/queens_of_the_stone_age/six_shooter_btab.html ]
riff2
G|----------------------------------|
D|----------------------------------|
A|----------2---2---3---3---5---6---|
E|--5---5---------------------------|

end-riff
G|----------------------------------------|
D|----------------------------------------|
A|----------2---2---3---3---5---6---7-----|
E|--5---5---------------------------------|

riff1 X8
riff2
riff1
riff2
riff1 X4
end-riff
Comments