Queens Of The Stone Age - Rickshaw Chords & Tabs

 

Rickshaw Chords & Tabs

Queens Of The Stone Age Chords & Tabs

Version: 1 Type: Bass Tab 0 ratings
1 star 2 stars 3 stars 4 stars 5 stars
comments

Rickshaw Bass Tab

Band- Queens Of The Stone Age
Song- Rickshaw

~ - Let Ring
 h - Hammer-On
 p - Pull-Off
 \\ - Slide Down
 / - Slide Up


Verse:
Eb|--------------------------------------/11-9---11--|
Bb|--------------------------------------------------|
F |--------------------------7-7-7-7-7-7-------------|
C |--4-4-4-4-4-4-7-7-7-7-7-7-------------------------|
[ Tab from: http://www.guitartabs.cc/tabs/q/queens_of_the_stone_age/rickshaw_btab.html ]
Chorus:
Eb|-----------------------------------------------|
Bb|-----------------------------------------------|
F |--------11--11-11-11-11-11/14-7-7-7-7-7-7-7-7--|
C |--9---9----------------------------------------|



STANDARD TUNING


Verse:
G|--------------------------------------/7-5---7--|
D|------------------------------------------------|
A|--------------------------3-3-3-3-3-3-----------|
E|--0-0-0-0-0-0-3-3-3-3-3-3-----------------------|

Chorus:
G|-----------------------------------------|
D|-----------------------------------------|
A|--------7--7-7-7-7-7/10-3-3-3-3-3-3-3-3--|
E|--5---5----------------------------------|
Comments