Queens Of The Stone Age - Regular John Chords & Tabs

 

Regular John Chords & Tabs

Queens Of The Stone Age Chords & Tabs

Version: 4 Type: Tab 0 ratings
1 star 2 stars 3 stars 4 stars 5 stars
comments

Regular John Tab

   
     Tabber: Connor G.

  
  Violin
     e-----------------|
     B--11---4--10---15|
     G-----------------|
     D-----------------|x4
     A-----------------|
     E-----------------|

     e---------------------------------|
     B---------------------------------|
     G---------------------------------|
     D-55555555555555555555555555555555|x2
     A-33333333333333333333333333333333|
     E---------------------------------|

     e------------------|
     B------------------|
     G------------------|
     D-5555-888-5555-777|x4
     A-3333-666-3333-555|
     E------------------|

     e---------------------------------|
     B---------------------------------|
     G---------------------------------|
     D-55555555555555555555555555555555|x2
     A-33333333333333333333333333333333|
     E---------------------------------|

     e------------------|
     B------------------|
     G------------------|
     D-----------3333333|
     A-33-55-66--1111111|
     E-11-33-44---------|

     e---------------------------------|
     B---------------------------------|
     G---------------------------------|
     D-55555555555555555555555555555555|x1
     A-33333333333333333333333333333333|
     E---------------------------------|

     e------------------|
     B------------------|
     G------------------|
     D-----------3333333|
     A-33-55-66--1111111|
     E-11-33-44---------|

     e---------------------------------|
     B---------------------------------|
     G---------------------------------|
     D-55555555555555555555555555555555|x1
     A-33333333333333333333333333333333|
     E---------------------------------|

     e------------------|
     B------------------|
     G------------------|
     D-----------3333333|
     A-33-55-66--1111111|
     E-11-33-44---------|

     e---------------------------------|
     B---------------------------------|
     G---------------------------------|
     D-55555555555555555555555555555555|x1
     A-33333333333333333333333333333333|
     E---------------------------------|

     e------------------|
     B------------------|
     G------------------|
     D-----------3333333|
     A-33-55-66--1111111|
     E-11-33-44---------|

     e-----------------|
     B-----------------|
     G-----------------|
     D-88888888---5-555|
     A-66666666-8-3-333|
     E----------6------|
[ Tab from: http://www.guitartabs.cc/tabs/q/queens_of_the_stone_age/regular_john_tab_ver_4.html ]
   solo
     e-----------------------------------------------------|
     B-----------------------------------------------------|
     G-----------------------------------------------------|
     D-----------------------------------------------------|
     A----------------------15-13-15-15/18-15/18---15-13-10|
     E--6-8-11-13--15-13-15--------------------------------|

     e------------------|
     B------------------|
     G------------------|
     D-5555-888-5555-777|x4
     A-3333-666-3333-555|
     E------------------|

     e---------------------------------|
     B---------------------------------|
     G---------------------------------|
     D-55555555555555555555555555555555|x2
     A-33333333333333333333333333333333|
     E---------------------------------|

     e------------------|
     B------------------|
     G------------------|
     D-----------3333333|
     A-33-55-66--1111111|
     E-11-33-44---------|

     e---------------------------------|
     B---------------------------------|
     G---------------------------------|
     D-55555555555555555555555555555555|x1
     A-33333333333333333333333333333333|
     E---------------------------------|

     e------------------|
     B------------------|
     G------------------|
     D-----------3333333|
     A-33-55-66--1111111|
     E-11-33-44---------|

     e---------------------------------|
     B---------------------------------|
     G---------------------------------|
     D-55555555555555555555555555555555|x1
     A-33333333333333333333333333333333|
     E---------------------------------|

     e------------------|
     B------------------|
     G------------------|
     D-----------3333333|
     A-33-55-66--1111111|
     E-11-33-44---------|

     e---------------------------------|
     B---------------------------------|
     G---------------------------------|
     D-55555555555555555555555555555555|x1
     A-33333333333333333333333333333333|
     E---------------------------------|

     e------------------|
     B------------------|
     G------------------|
     D-----------3333333|
     A-33-55-66--1111111|
     E-11-33-44---------|

     e-----------------|
     B-----------------|
     G-----------------|
     D-88888888---5-555|
     A-66666666-8-3-333|
     E----------6------|

 solo 2
     e------------------|
     B------------------|
     G-17/15-17/15-17/15|
     D------------------|
     A------------------|
     E------------------|

        vote!
Comments