Queens Of The Stone Age - Regular John Chords & Tabs

 

Regular John Chords & Tabs

Queens Of The Stone Age Chords & Tabs

Version: 1 Type: Tab 0 ratings
1 star 2 stars 3 stars 4 stars 5 stars
comments

Regular John Tab

Regular John
Queens of the Stone Age
Tabbed by:a1rsauce
100% right

Intro:
-------------------------------------------------
-------------------------------------------------
-------------------------------------------------
-10-10-10-10-10-10-10-10-------------------------
-10-10-10-10-10-10-10-10-------------------------
-8--8--8--8--8--8--8--8--------------------------

Then they go into this:

-------------------------------------------------
-------------------------------------------------
-------------------------------------------------
---17-17-17--20-20-20--17-17-17--19-19-19--------
---15-15-15--18-18-18--15-15-15--17-17-17--------
-------------------------------------------------

Verse:

-------------------------------------------------
-------------------------------------------------
-------------------5-----------------------------
--10--------3-3--5-5-6-6-8-8-8-8-8-8-------------
--10-x20----3-3--5-3-6-6-8-8-8-8-8-8-------------
--8---------1-1--3---4-4-6-6-6-6-6-6-------------

Chorus:

--------------------------
--------------------------
--------------------------
--13----12-----10---------
--13-x8-12-x3--10-x4------
--11----10-----8----------

Little Thingy after the chorus:

-----------------------------------------------------------
-----------------------------------------------------------
-----------------------------------------------------------
-----------------------------------------------------------
--17-17-17--20-20-20--17-17-17--19-19-19-------------------
--15-15-15--18-18-18--15-15-15--17-17-17-x2----------------
-----------------------------------------------------------
Continued:
[ Tab from: http://www.guitartabs.cc/tabs/q/queens_of_the_stone_age/regular_john_tab.html ]
--------------------------------------        ----------------------
--------------------------------------        ----------------------
--------------------------------------        -12-----13------------
--17-20-20-17-19-19-17-20-20-20-17-17-        -12-x8--13------------
--15-18-18-15-17-17-15-18-18-18-15-15-        -12-----13-x8---------
--------------------------------------        ----------------------

solo During the chorus:
                                 
--------------------------------------
-13h12-13h12-13h12-13h12-13h12--------
-------------------------------12bend-
--------------------------------------
--------------------------------------
--------------------------------------


Main Solo:

-----------------------------------------------------------------------------------
-----------------------------------------------------------------------------------
--12b-14b-15b-14b------------------------------------------------------------------
---------------------101010-----13-13-13------17-17-20-17-17-20-15-15-19-17-17-----
---------------------101010-x4--13-13-13-x4---15-15-18-15-15-18-15-15-17-15-15-----
---------------------8-8-8------11-11-11-------------------------------------------
                    clean guitar..................................................

solo cont.:

-------------------------------------------------------------------------------------------
------------------------------------------------------------------12-13-12-13-13b-12-------
------------------------------------------------------------12-14--------------------12----
--17-17-17----17-17-17----15-15-15--------------------12-14--------------------------------
--15-15-15-x4-14-14-14-x4-13-13-13-x4--10-10-10-x4-----------------------------------------
---------------------------------------8--8--8---------------------------------------------























Comments