Queens Of The Stone Age - Quick And To The Pointless Chords & Tabs

 

Quick And To The Pointless Chords & Tabs

Queens Of The Stone Age Chords & Tabs

Version: 1 Type: Chords 0 ratings
1 star 2 stars 3 stars 4 stars 5 stars
comments

Quick And To The Pointless Chords

   
Queens Of The Stone Age - Quick And To The Pointless
Submitted By: Sqweeky
EMail: Blindside831@aol.com

Tabbed by Rich Blake

"yeah! yeah! yeah!"

Intro And Verse:
e|---------------|
B|---------------|
G|---------------|
D|-2-3-3-3-3-3-3-|
A|-2-3-3-3-3-3-3-|
E|-0-1-1-1-1-1-1-|
[ Tab from: http://www.guitartabs.cc/tabs/q/queens_of_the_stone_age/quick_and_to_the_pointless_crd.html ]
Chorus:
e|-----------------------------------------|
B|-----------------------------------------|
G|-----------------------------------------|
D|-5-5-5-5-5-5-5-5-5-5-4-4-4-4-4-4-4-4-4-4-|
A|-5-5-5-5-5-5-5-5-5-5-4-4-4-4-4-4-4-4-4-4-|
E|-3-3-3-3-3-3-3-3-3-3-2-2-2-2-2-2-2-2-2-2-|

verse x1
chorus x1
verse x1
chorus x1
verse to end
Comments