Queens Of The Stone Age - Ode To Clarissa Chords & Tabs

 

Ode To Clarissa Chords & Tabs

Queens Of The Stone Age Chords & Tabs

Version: 1 Type: Tab 0 ratings
1 star 2 stars 3 stars 4 stars 5 stars
comments

Ode To Clarissa Tab

   
Tuning - C F Bb Eb G C

intro riff:
-----------------------------------|
-----------------------------------|
-----------------------------7-9---|
---9-9-9-9-9-9-9-9-9-9-9-9-9-7-9---|
---9-9-9-9-9-9-9-9-9-9-9-9-9-5-7---|
---7-7-7-7-7-7-7-7-7-7-7-7-7-------|

lead:
----------------------------------------------|
----------------------------------------------|
---------14-16b--16-14-------------14---------|
---14-16---------------16-16-14-16------------|
----------------------------------------------|
----------------------------------------------|
[ Tab from: http://www.guitartabs.cc/tabs/q/queens_of_the_stone_age/ode_to_clarissa_tab.html ]
verse riff:
--------------------------|
--------------------------|
--------------------------|
---9--12-12--9-9\7/12\7---|
---9--12-12--9-9\7/12\7---|
---7--10-10--7-7\5/10\5---|

verse fill:
---------------------|
---------------------|
---------------------|
---7-7-7-7-7-7-7-7---|
---7-7-7-7-7-7-7-7---|
---5-5-5-5-5-5-5-5---|

chorus:
-----------------------------------|
-----------------------------------|
------7-7-------7-7-------7-7--9---|
---9--7-7--7-7--7-7--7-7--7-7--9---|
---9--5-5--7-7--5-5--7-7--5-5--7---|
---7-------5-5-------5-5-----------|

intro riff 2x

lead 2x

end on:
-------|
-------|
---9---|
---9---|
---7---|
-------|
Comments