Queens Of The Stone Age - Ode To Clarissa Chords & Tabs

 

Ode To Clarissa Chords & Tabs

Queens Of The Stone Age Chords & Tabs

Version: 1 Type: Bass Tab 0 ratings
1 star 2 stars 3 stars 4 stars 5 stars
comments

Ode To Clarissa Bass Tab

Band- Queens Of The Stone Age
Song- Ode To Clarissa

Intro
G|--------------------------------|
D|--------------------------------|
A|-------------------------1-3----|
E|-3-3-3-3-3-3-3-3-3-3-3-3--------|
[ Tab from: http://www.guitartabs.cc/tabs/q/queens_of_the_stone_age/ode_to_clarissa_btab.html ]
Verse
G|--------------------------------------|   
D|--------------------------------------|
A|-------1-1------------1-1-------------|
E|--3-3-------3-3--1-1-------1-1--------|

Chorus
G|------------------------------|   
D|------------------------------|
A|------1-1-----1-1------1-3----|
E|-3-3------1-1-----1-1-1-------|

Fill
G|------------------------------|
D|------------------------------|
A|-------------------------1-3--|
E|-1-1-1-1-1-1-1-1-1-1-1-1------|


The song ends on the Intro riff.
Comments