Queens Of The Stone Age - No One Knows Chords & Tabs

 

No One Knows Chords & Tabs

Queens Of The Stone Age Chords & Tabs

Version: 5 Type: Tab 1 rating
1 star 2 stars 3 stars 4 stars 5 stars
comments

No One Knows Tab

   
#----------------------------------PLEASE NOTE---------------------------------#
#This file is the author's own work and represents their interpretation of the #
#song. You may only use this file for private study, scholarship, or research. #
#------------------------------------------------------------------------------#

NO ONE KNOWS
As recorded by Queens Of The Stone Age

Transcribed by Cali_8o5
	



Gtr I (C F A# D# G C) - 'Untitled'
Gtr II (C F A# D# G C) - 'Untitled'
Gtr III (C F A# D# G C) - 'Untitled'

 Intro
  Q=173(8=s8)
 4/4
  Gtr I
   Q  Q   Q  Q     Q  Q   Q   Q     q   q   E E Q     q   E E Q   Q
|-12-----12-----|-12-----12-------|----------------|-------------------|
|--8------8-----|--8------8-------|----10--10-8----|-10--10-8----------|
|--x------x-----|--x------x-------|-----x---x---9--|--x---x---9--------|
|--9------9-----|--9------9-------|-----9---9------|--9---9------------|
|--7------7-----|--7------7-------|-----7---7------|--7---7------------|
|---------------|------------12\--|-0--------------|-------------12\---|


  q   q   E E Q     q   E E Q   Q
|----------------|------------------|
|----10--10-8----|-10--10-8---------|
|-----x---x---9--|--x---x---9-------|
|-----9---9------|--9---9-----------|
|-----7---7------|--7---7-----------|
|-0--------------|-------------12\--|


  q   q   E E Q     Q   E      +E   +Q    Q
|----------------|----------------------------|
|----10--10-8----|-10--10b12==(10)r(10)-------|
|-----x---x---9--|--x---x---------------------|
|-----9---9------|--9---9---------------------|
|-----7---7------|--7---7---------------------|
|-0--------------|-----------------------12\--|


                                   Verse
  q   q   E E Q     q    H.         Q  Q  Q  Q    Q  Q  Q  E E
|----------------|------------||-------------|--------------|
|----10--10-8----|---------||----8-----8--|----8-------0-|
|-----x---x---9--|---------||----x-----x--|----x-------0-|
|-----9---9------|---------------||----9-----9--|----9---------|
|-----7---7------|---------------||----7-----7--|----7---------|
|-0--------------|---------------||-0-----0-----|-0-----0--0---|


  Q  Q  Q  Q    Q  Q  Q  E E   Q  Q  Q  Q    Q  Q  Q  E E
|-------------|--------------|-------------|--------------|
|-8--8--------|----8-----8-0-|-8--8--------|----8-----8-0-|
|-x--x--------|----x-----x-0-|-x--x--------|----x-----x-0-|
|-9--9--------|----9-----9---|-9--9--------|----9-----9---|
|-7--7--------|----7-----7---|-7--7--------|----7-----7---|
|-------0--0--|-0-----0------|-------0--0--|-0-----0------|


  Q  Q  Q  Q    Q  Q  Q  E E    Q   Q   Q   Q     Q   Q   E E  E E
|-------------|--------------|-----------------|-------------------|
|-8--8--------|----8-----8-0-|-10--10--10--10--|-10--10--10-0-10-0-|
|-x--x--------|----x-----x-0-|--8---8---8---8--|--8---8---8----8---|
|-9--9--------|----9-----9---|--x---x---x---x--|--x---x---x----x---|
|-7--7--------|----7-----7---|--9---9---9---9--|--9---9---9----9---|
|-------0--0--|-0-----0------|--7---7---7---7--|--7---7---7----7---|


  Q  Q  Q  Q    Q  Q  E E E E   q   q   E E Q     q   E E Q   Q
|-------------|---------------|----------------|------------------|
|-8--8--8--8--|-8--8--8-0-8-0-|----10--10-8----|-10--10-8---------|
|-8--8--8--8--|-8--8--8---8---|-----x---x---9--|--x---x---9-------|
|-x--x--x--x--|-x--x--x---x---|-----9---9------|--9---9-----------|
|-6--6--6--6--|-6--6--6---6---|-----7---7------|--7---7-----------|
|-------------|---------------|-0--------------|-------------12\--|


  q   q   E E Q    q  H         +Q      Q  Q  Q  Q    Q  Q  Q  E E
|----------------|----0--------------||-------------|--------------|
|----10--10-8----|-8--5pb5.5r===(5)--||----8-----8--|----8-------0-|
|-----x---x---9--|-x-----------------||----x-----x--|----x-------0-|
|-----9---9------|-9-----------------||----9-----9--|----9---------|
|-----7---7------|-7-----------------||----7-----7--|----7---------|
|-0--------------|-------------------||-0-----0-----|-0-----0--0---|


  Q  Q  Q  Q    Q  Q  Q  E E   Q  Q  Q  Q    Q  Q  Q  E E
|-------------|--------------|-------------|--------------|
|-8--8--------|----8-----8-0-|-8--8--------|----8-----8-0-|
|-x--x--------|----x-----x-0-|-x--x--------|----x-----x-0-|
|-9--9--------|----9-----9---|-9--9--------|----9-----9---|
|-7--7--------|----7-----7---|-7--7--------|----7-----7---|
|-------0--0--|-0-----0------|-------0--0--|-0-----0------|


  Q  Q  Q  Q    Q  Q  Q  E E    Q   Q   Q   Q     Q   Q   E E  E E
|-------------|--------------|-----------------|-------------------|
|-8--8--------|----8-----8-0-|-10--10--10--10--|-10--10--10-0-10-0-|
|-x--x--------|----x-----x-0-|--8---8---8---8--|--8---8---8----8---|
|-9--9--------|----9-----9---|--x---x---x---x--|--x---x---x----x---|
|-7--7--------|----7-----7---|--9---9---9---9--|--9---9---9----9---|
|-------0--0--|-0-----0------|--7---7---7---7--|--7---7---7----7---|


                                                          |-3-| |-3-|
  Q  Q  Q  Q    Q  Q  E E E E   q   q   E E Q     Q   E E E E E E E E
|-------------|---------------|----------------|----------------------|
|-8--8--8--8--|-8--8--8-0-8-0-|-8--10--10-8----|-10--10---------------|
|-8--8--8--8--|-8--8--8---8---|-x---x---x---9--|--x---x---------------|
|-x--x--x--x--|-x--x--x---x---|-9---9---9------|--9---9---------------|
|-6--6--6--6--|-6--6--6---6---|-7---7---7------|--7---7-----7-5-7-5---|
|-------------|---------------|----------------|--------0-5---------7-|


  Q   Q   E E Q     q   E E Q   Q      Q   Q   Q   Q     Q   Q   E E  E E
|----------------|------------------|-----------------|-------------------|
|----10--10-8----|-10--10-8---------|-10--10--10--10--|-10--10--10-0-10-0-|
|-----x---x---9--|--x---x---9-------|--8---8---8---8--|--8---8---8----8---|
|-----9---9------|--9---9-----------|--x---x---x---x--|--x---x---x----x---|
|-----7---7------|--7---7-----------|--9---9---9---9--|--9---9---9----9---|
|-0--------------|-------------12\--|--7---7---7---7--|--7---7---7----7---|


                                                                   ~
  Q  Q  Q  Q    Q  Q  E E E E   q   q   E E Q     Q   E E  E     E Q
|-------------|---------------|----------------|----------------12----|
|-8--8--8--8--|-8--8--8-0-8-0-|-8--10--10-8----|-10--10-0-10b12-------|
|-8--8--8--8--|-8--8--8---8---|-x---x---x---9--|--x---x------------9--|
|-x--x--x--x--|-x--x--x---x---|-9---9---9------|--9---9---------------|
|-6--6--6--6--|-6--6--6---6---|-7---7---7------|--7---7---------------|
|-------------|---------------|----------------|----------------------|


                                     Bridge
  Q   Q   E E Q     q   E E Q  E E    E E  E E  E E  E E    E E  E E  E E  E E
|----------------|-----------------||--------------------|---------------------|
|----10--10-8----|-10--10-8--------||--------------------|---------------------|
|-----x---x---9--|--x---x---9--9-x-||-9-x-11-x-12-x-11-x-|-14-x-12-x-16-x-14-x-|
|-----9---9------|--9---9------x-x-||-x-x--x-x--x-x--x-x-|--x-x--x-x--x-x--x-x-|
|-----7---7------|--7---7------7-x-||-7-x--9-x-10-x--9-x-|-12-x-10-x-14-x-12-x-|
|-0--------------|-----------------||--------------------|---------------------|


  Gtr II
  E E E E E E E E   E E E E E E E E   E E E E E E E E
|-----------------|-----------------|-----------------|
|-----------------|-----------------|-----------------|
|-----------------|-----------------|-----------------|
|-----------------|-----------------|-----------------|
|-9-0-9-0-9-0-9-0-|-9-0-9-0-9-0-9-0-|-9-0-9-0-9-0-9-0-|
|-7-0-7-0-7-0-7-0-|-7-0-7-0-7-0-7-0-|-7-0-7-0-7-0-7-0-|


  E E E E E E E E   E E E E E E E E   E E E E E E E E
|-----------------|-----------------|------------------|
|-----------------|-----------------|------------------|
|-----------------|-----------------|------------------|
|-----------------|-----------------|------------------|
|-9-0-9-0-9-0-9-0-|-9-0-9-0-9-0-9-0-|-9-0-9-0-9-0-9-0--|
|-7-0-7-0-7-0-7-0-|-7-0-7-0-7-0-7-0-|-7-0-7-0-7-0-7-0--|


   E E  E E E E E E   E E  E E  E E  E E   E E E E E E E E   E E E E E E E E
|-------------------|--------------------|-----------------|-----------------|
|-------------------|--------------------|-----------------|-----------------|
|-12-x-11-x-9-x-8-x-|-9-x-11-x-12-x-11-x-|-----------------|-----------------|
|--x-x--x-x-x-x-x-x-|-x-x--x-x--x-x--x-x-|-----------------|-----------------|
|-10-x--9-x-7-x-6-x-|-7-x--9-x-10-x--9-x-|-9-0-9-0-9-0-9-0-|-9-0-9-0-9-0-9-0-|
|-------------------|--------------------|-7-0-7-0-7-0-7-0-|-7-0-7-0-7-0-7-0-|


  E E  E E  E E  E E    E E  E E  E E  E E   E E E E E E E E   E E E E E E E E
|--------------------|---------------------|-----------------|-----------------|
|--------------------|---------------------|-----------------|-----------------|
|-9-x-11-x-12-x-11-x-|-14-x-12-x-16-x-14-x-|-----------------|-----------------|
|-x-x--x-x--x-x--x-x-|--x-x--x-x--x-x--x-x-|-----------------|-----------------|
|-7-x--9-x-10-x--9-x-|-12-x-10-x-14-x-12-x-|-9-0-9-0-9-0-9-0-|-9-0-9-0-9-0-9-0-|
|--------------------|---------------------|-7-0-7-0-7-0-7-0-|-7-0-7-0-7-0-7-0-|


  q   q   E E Q     q   E E Q   Q     q   q   E E Q    q  H         +Q
|----------------|------------------|----------------|----0--------------||
|----10--10-8----|-10--10-8---------|----10--10-8----|----5pb5.5r===(5)--||
|-----x---x---9--|--x---x---9-------|-----x---x---9--|-------------------||
|-----9---9------|--9---9-----------|-----9---9------|-9-----------------||
|-----7---7------|--7---7-----------|-----7---7------|-7-----------------||
|-0--------------|-------------12\--|-0--------------|-------------------||


   Verse
    Q  Q  Q  Q    Q  Q  Q  E E   Q  Q  Q  Q
||--------------|--------------|-------------|
||o----8-----8--|----8-------0-|-8--8--------|
||-----x-----x--|----x-------0-|-x--x--------|
||-----9-----9--|----9---------|-9--9--------|
||o----7-----7--|----7---------|-7--7--------|
||--0-----0-----|-0-----0--0---|-------0--0--|


  Q  Q  Q  E E   Q  Q  Q  Q    Q  Q  Q  E E
|--------------|-------------|---------------|
|----8-----8-0-|-8--8--------|----8-----8-0--|
|----x-----x-0-|-x--x--------|----x-----x-0--|
|----9-----9---|-9--9--------|----9-----9----|
|----7-----7---|-7--7--------|----7-----7----|
|-0-----0------|-------0--0--|-0-----0-------|


  Q  Q  Q  Q    Q  Q  Q  E E    Q   Q   Q   Q     Q   Q   E E  E E
|-------------|--------------|-----------------|-------------------|
|-8--8--------|----8-----8-0-|-10--10--10--10--|-10--10--10-0-10-0-|
|-x--x--------|----x-----x-0-|--8---8---8---8--|--8---8---8----8---|
|-9--9--------|----9-----9---|--x---x---x---x--|--x---x---x----x---|
|-7--7--------|----7-----7---|--9---9---9---9--|--9---9---9----9---|
|-------0--0--|-0-----0------|--7---7---7---7--|--7---7---7----7---|


                               1.
                                                          |-3-| |-3-|
  Q  Q  Q  Q    Q  Q  E E E E   q   q   E E Q     Q   E E E E E E E E
|-------------|---------------|----------------|----------------------|
|-8--8--8--8--|-8--8--8-0-8-0-|----10--10-8----|-10--10---------------|
|-8--8--8--8--|-8--8--8---8---|-----x---x---9--|--x---x---------------|
|-x--x--x--x--|-x--x--x---x---|-----9---9------|--9---9---------------|
|-6--6--6--6--|-6--6--6---6---|-----7---7------|--7---7-----7-5-7-5---|
|-------------|---------------|-0--------------|--------0-5---------7-|


                                   2.
  q   q   E E Q    Q   H.           Q   q   E E Q     Q   E E Q   Q
|----------------|--------------||-----------------|-------------------|
|----10--10-8----|-8--------o||--8--10--10-8----|-10--10-8----------|
|-----x---x---9--|-x---------||--x---x---x---9--|--x---x---9--------|
|-----9---9------|-9------------||--9---9---9------|--9---9------------|
|-----7---7------|-7-----------o||--7---7---7------|--7---7------------|
|-0--------------|--------------||-----------------|-------------17\---|


  Q   Q   E E Q     q   E E Q   Q      Q   Q   Q   Q     Q   Q   E E  E E
|----------------|------------------|-----------------|-------------------|
|----10--10-8----|-10--10-8---------|-10--10--10--10--|-10--10--10-0-10-0-|
|-----x---x---9--|--x---x---9-------|--8---8---8---8--|--8---8---8----8---|
|-----9---9------|--9---9-----------|--x---x---x---x--|--x---x---x----x---|
|-----7---7------|--7---7-----------|--9---9---9---9--|--9---9---9----9---|
|-0--------------|-------------12\--|--7---7---7---7--|--7---7---7----7---|


                                                                   ~
  Q  Q  Q  Q    Q  Q  E E E E   q   q   E E Q     Q   E E  E     E Q
|-------------|---------------|----------------|----------------12----|
|-8--8--8--8--|-8--8--8-0-8-0-|-8--10--10-8----|-10--10-0-10b12-------|
|-8--8--8--8--|-8--8--8---8---|-x---x---x---9--|--x---x------------9--|
|-x--x--x--x--|-x--x--x---x---|-9---9---9------|--9---9---------------|
|-6--6--6--6--|-6--6--6---6---|-7---7---7------|--7---7---------------|
|-------------|---------------|----------------|----------------------|

[ Tab from: http://www.guitartabs.cc/tabs/q/queens_of_the_stone_age/no_one_knows_tab_ver_5.html ]
                                     Bridge
  Q   Q   E E Q     q   E E Q  E E    E E  E E  E E  E E    E E  E E  E E  E E
|----------------|-----------------||--------------------|---------------------|
|----10--10-8----|-10--10-8--------||--------------------|---------------------|
|-----x---x---9--|--x---x---9--9-x-||-9-x-11-x-12-x-11-x-|-14-x-12-x-16-x-14-x-|
|-----9---9------|--9---9------x-x-||-x-x--x-x--x-x--x-x-|--x-x--x-x--x-x--x-x-|
|-----7---7------|--7---7------7-x-||-7-x--9-x-10-x--9-x-|-12-x-10-x-14-x-12-x-|
|-0--------------|-----------------||--------------------|---------------------|


  E E E E E E E E   E E E E E E E E   E E E E E E E E
|-----------------|-----------------|-----------------|
|-----------------|-----------------|-----------------|
|-----------------|-----------------|-----------------|
|-----------------|-----------------|-----------------|
|-9-0-9-0-9-0-9-0-|-9-0-9-0-9-0-9-0-|-9-0-9-0-9-0-9-0-|
|-7-0-7-0-7-0-7-0-|-7-0-7-0-7-0-7-0-|-7-0-7-0-7-0-7-0-|


  E E E E E E E E   E E E E E E E E   E E E E E E E E
|-----------------|-----------------|------------------|
|-----------------|-----------------|------------------|
|-----------------|-----------------|------------------|
|-----------------|-----------------|------------------|
|-9-0-9-0-9-0-9-0-|-9-0-9-0-9-0-9-0-|-9-0-9-0-9-0-9-0--|
|-7-0-7-0-7-0-7-0-|-7-0-7-0-7-0-7-0-|-7-0-7-0-7-0-7-0--|


   E E  E E E E E E   E E  E E  E E  E E   E E E E E E E E   E E E E E E E E
|-------------------|--------------------|-----------------|-----------------|
|-------------------|--------------------|-----------------|-----------------|
|-12-x-11-x-9-x-8-x-|-9-x-11-x-12-x-11-x-|-----------------|-----------------|
|--x-x--x-x-x-x-x-x-|-x-x--x-x--x-x--x-x-|-----------------|-----------------|
|-10-x--9-x-7-x-6-x-|-7-x--9-x-10-x--9-x-|-9-0-9-0-9-0-9-0-|-9-0-9-0-9-0-9-0-|
|-------------------|--------------------|-7-0-7-0-7-0-7-0-|-7-0-7-0-7-0-7-0-|


  E E  E E  E E  E E    E E  E E  E E  E E   E E E E E E E E   E E E E E E E E
|--------------------|---------------------|-----------------|-----------------|
|--------------------|---------------------|-----------------|-----------------|
|-9-x-11-x-12-x-11-x-|-14-x-12-x-16-x-14-x-|-----------------|-----------------|
|-x-x--x-x--x-x--x-x-|--x-x--x-x--x-x--x-x-|-----------------|-----------------|
|-7-x--9-x-10-x--9-x-|-12-x-10-x-14-x-12-x-|-9-0-9-0-9-0-9-0-|-9-0-9-0-9-0-9-0-|
|--------------------|---------------------|-7-0-7-0-7-0-7-0-|-7-0-7-0-7-0-7-0-|


     E E  E E  E E  E E    E E  E E  E E  E E
||----------------------|---------------------|
||o---------------------|---------------------|
||----------------------|---------------------|
||----------------------|---------------------|
||o-14-x-14-x-14-x-14-x-|-14-x-14-x-14-x-14-x-|
||--12-x-12-x-12-x-12-x-|-12-x-12-x-12-x-12-x-|


                        |-3--| |-3-|
   E E  E E  E E  E E   Q  Q Q Q Q Q
|---------------------|----------------||
|---------------------|---------------o||
|---------------------|----------------||
|---------------------|------8---------||
|-14-x-14-x-14-x-14-x-|-9-10-6-9-7-9--o||
|-12-x-12-x-12-x-12-x-|-7--8---7-5-7---||


  |-3--| |-3-|   |-3--| |-3-|   |-3--| |-3-|
  Q  Q Q Q Q Q   Q  Q Q Q Q Q   Q  Q Q Q Q Q     Q  Q  H
|--------------|--------------|--------------||-------------|
|--------------|--------------|--------------||-------------|
|--------------|--------------|--------------||-------------|
|------8-------|------8-------|------8-------||-------------|
|-9-10-6-9-7-9-|-9-10-6-9-7-9-|-9-10-6-9-7-9-||-14----------|
|-7--8---7-5-7-|-7--8---7-5-7-|-7--8---7-5-7-||-12----------|


  W          W          W
|----------|----------|------||
|----------|----------|------||
|----------|----------|------||
|----------|----------|------||
|----------|----------|------||
|----------|----------|------||


 Guitar Solo
  |-3-| |-3-| |-3--|  |-3--|
  E E E E E E E  E E  E  E E    H      E  E  E  E    E  E  E  E  Q   E  E
|-----0-----0------0-------0-|--0------0-----0----|--0-----0-----0---0----|
|-5-7---7-8---8-10---10-12---|-12-----12-17-17-15-|-15-19-19-15-15--17-15-|
|----------------------------|--------------------|-----------------------|
|----------------------------|--------------------|-----------------------|
|----------------------------|--------------------|-----------------------|
|----------------------------|--------------------|-----------------------|
|
| Gtr III
| W                            +W                    W
|----------------------------|--------------------|-----------------------|
|----------------------------|--------------------|-----------------------|
|----------------------------|--------------------|-----------------------|
|----------------------------|--------------------|-----------------------|
|----------------------------|--------------------|--0--------------------|
|-0--------------------------|-(0)----------------|-----------------------|


                          ~~          ~~~~
                |-3--|          |-3-|
  E  E  +H      E  E E    H     E E E Q
|-0--------------------|-----------------|
|-8-12-(12)----12-10-8-|-10----10-8-7-8--|
|----------------------|-----------------|
|----------------------|-----------------|
|----------------------|-----------------|
|----------------------|-----------------|
|
| W                       W
|----------------------|-----------------|
|----------------------|--5--------------|
|----------------------|--4--------------|
|----------------------|--2--------------|
|-2--------------------|-----------------|
|----------------------|-----------------|


 ~~~~~       ~                 ~~~~~~~
       |-3-|
  +Q   E E E H      S S S S E  E  +H
|-----------------|----------------------|
|-(8)--8-7-5-7----|-7-8-7-5-7-12-(12)----|
|-----------------|----------------------|
|-----------------|----------------------|
|-----------------|----------------------|
|-----------------|----------------------|
|
|  W                W
|-----------------|-0--------------------|
|--5--------------|-0--------------------|
|--3--------------|-0--------------------|
|--4--------------|----------------------|
|-----------------|----------------------|
|-----------------|----------------------|


                                ~~~~~~~              ~~~~~~~
  |-3--|               |-3--|               |-3--|
  Q Q  Q  +H           Q Q  Q  +H           Q Q  Q  +H
|--------------------|--------------------|-------------------|
|---8-12-(12)b15-----|---8-12-(12)b15-----|---8-12-(12)b15----|
|-9------------------|-9------------------|-9-----------------|
|--------------------|--------------------|-------------------|
|--------------------|--------------------|-------------------|
|--------------------|--------------------|-------------------|
|
| W                    W                    W
|--------------------|-0------------------|-2-----------------|
|-3------------------|-0------------------|-x-----------------|
|-3------------------|--------------------|-3-----------------|
|--------------------|--------------------|-------------------|
|--------------------|--------------------|-------------------|
|--------------------|--------------------|-------------------|


   |--3--|       |---3----|  |--3--|       |---3----|
   E  E  E      +E   +E   E  E  E  E      +E   +E   E
|-14-11---------------------14-11---------------------|
|-------12b15==(12)r(12)----------12b15==(12)r(12)----|
|------------------------12------------------------12-|
|-----------------------------------------------------|
|-----------------------------------------------------|
|-----------------------------------------------------|
|
|  W
|--3--------------------------------------------------|
|--3--------------------------------------------------|
|-----------------------------------------------------|
|-----------------------------------------------------|
|-----------------------------------------------------|
|-----------------------------------------------------|


   |--3--|       |---3----|  |--3--|       |---3----|
   E  E  E      +E   +E   E  E  E  E      +E   +E   E    Q  Q  H
|-14-11---------------------14-11---------------------|-12----------||
|-------12b15==(12)r(12)----------12b15==(12)r(12)----|-------------||
|------------------------12------------------------12-|-------------||
|-----------------------------------------------------|-------------||
|-----------------------------------------------------|-------------||
|-----------------------------------------------------|-------------||
|
|  W                                                     Q  Q  H
|--7--------------------------------------------------|-12----------||
|--4--------------------------------------------------|--x----------||
|-----------------------------------------------------|--9----------||
|-----------------------------------------------------|-------------||
|-----------------------------------------------------|-------------||
|-----------------------------------------------------|-------------||


                                   Verse
  W          W          W           W          W          W
|----------|----------|----------||----------|----------|------|
|----------|----------|----------||----------|----------|------|
|----------|----------|----------||----------|----------|------|
|----------|----------|----------||----------|----------|------|
|----------|----------|----------||----------|----------|------|
|----------|----------|----------||----------|----------|------|


  H     Q   Q     Q  Q  Q  Q    Q  Q  Q  E E   Q  Q  Q  Q
|------!x-------|-------------|--------------|-------------|
|------!x-------|----8-----8--|----8-----8-0-|-8--8-----8--|
|------!x-------|----x-----x--|----x-----x-0-|-x--x-----x--|
|---------------|----9-----9--|----9-----9---|-9--9-----9--|
|---------------|----7-----7--|----7-----7---|-7--7-----7--|
|----------12\--|-0-----0-----|-0-----0------|-------0-----|


  Q  Q  Q  E E    Q   Q   Q   Q     Q   Q   Q   E E   Q  Q  Q  Q
|--------------|-----------------|------------------|-------------|
|----8-----8-0-|-10--10--10--10--|-10--10--10--10-0-|-8--8--8--8--|
|----x-----x-0-|--8---8---8---8--|--8---8---8---8---|-8--8--8--8--|
|----9-----9---|--x---x---x---x--|--x---x---x---x---|-x--x--x--x--|
|----7-----7---|--9---9---9---9--|--9---9---9---9---|-6--6--6--6--|
|-0-----0------|--7---7---7---7--|--7---7---7---7---|-------------|


  Q  Q  E E E E   Q   q   E E Q     Q   E E Q   Q     Q   q   E E Q
|---------------|----------------|------------------|----------------|
|-8--8--8-0-8-0-|-8--10--10-8----|-10--10-8------|----10--10-8----|
|-8--8--8---8---|-x---x---x---9--|--x---x---9----|-----x---x---9--|
|-x--x--x---x---|-9---9---9------|--9---9-----------|-----9---9------|
|-6--6--6---6---|-7---7---7------|--7---7-----------|-----7---7------|
|---------------|----------------|------------------|-0--------------|


   q   E E Q  E E   Q  Q  Q  Q    Q  Q  E E E E   Q  Q  Q  Q
|-----------------|-------------|---------------|-------------|
|-10--10-8----8-x-|-------------|---------0---0-|-8--8--8--8--|
|--x---x---9--x-x-|-8--8--8--8--|-8--8--8---8---|-8--8--8--8--|
|--9---9------9-x-|-x--x--x--x--|-x--x--x---x---|-x--x--x--x--|
|--7---7------7---|-9--9--9--9--|-9--9--9---9---|-6--6--6--6--|
|-----------------|-7--7--7--7--|-7--7--7---7---|-------------|


  Q  Q  Q  Q     Q  Q   Q  Q     Q  Q   Q  Q     Q  Q  H
|-------------|-12-----12-----|-12-----12-----|-12----------*|
|-8--8--8--8--|--8------8-----|--8------8-----|--8----------*|
|-8--8--8--8--|--x------x-----|--x------x-----|--x----------*|
|-x--x--x--x--|--9------9-----|--9------9-----|--9----------*|
|-6--6--6--6--|--7------7-----|--7------7-----|--7----------*|
|-------------|---------------|---------------|-------------*|



Duration Legend
---------------
W - whole; H - half; Q - quarter; E - 8th; S - 16th; T - 32nd; X - 64th; a - acciaccatura
+ - note tied to previous; . - note dotted; .. - note double dotted
Uncapitalized letters represent notes that are staccato (1/2 duration)
Irregular groupings are notated above the duration line
Duration letters will always appear directly above the note/fret number it represents the
duration for.  Duration letters with no fret number below them represent rests.  Multi-
bar rests are notated in the form Wxn, where n is the number of bars to rest for.  Low
melody durations appear below the staff

Tablature Legend
----------------
 h   - hammer-on
 p   - pull-off
 b   - bend
 pb  - pre-bend
 r   - bend release (if no number after the r, then release immediately)
 /\  - slide into or out of (from/to "nowhere")
 s   - legato slide
 S   - shift slide
 - natural harmonic
[n]  - artificial harmonic
n(n) - tapped harmonic
 ~   - vibrato
 tr  - trill
 T   - tap
 TP  - trem. picking
 PM  - palm muting
\n/  - tremolo bar dip; n = amount to dip
 \n  - tremolo bar down
 n/  - tremolo bar up
/n\  - tremolo bar inverted dip
 =   - hold bend; also acts as connecting device for hammers/pulls
  - volume swell (louder/softer)
 x   - on rhythm slash represents muted slash
 o   - on rhythm slash represents single note slash

Misc Legend
-----------
 |  - bar
||  - double bar
||o - repeat start
o|| - repeat end
*|  - double bar (ending)
 :  - bar (freetime)
 $  - Segno
 &  - Coda
Tempo markers -  = BPM(8/16=s8/s16), where s8 = swing 8ths, s16 = swing 16ths

Comments