Queens Of The Stone Age - No One Knows Chords & Tabs

 

No One Knows Chords & Tabs

Queens Of The Stone Age Chords & Tabs

Version: 3 Type: Tab 1 rating
1 star 2 stars 3 stars 4 stars 5 stars
comments

No One Knows Tab

   
Q.O.T.S.A. : No one knows

This song uses the same tuning as a lot of the QOTSA songs so you have to tune your guitar 
down two whole steps (4 frets) to play it in tune with the cd. If you listen to the song 
you can piece together where each part goes and where the fills are.  


Intro / Outro:

c |-7---7---7---7---|
g |-8---8---8---8---|
Eb|-9---9---9---9---|
Bb|-9---9---9---9---|
f |-7---7---7---7---|
C |-----------------|


Verse:

c |----7---7---7---7---7---7---7---7-|
g |----10--10--8---8---10--10--8---8-|
Eb|----7---7---7---9---7---7---7---9-|
Bb|----9---9---9---9---9---9---9---9-|
f |----7---7---7---7---7---7---7---7-|
C |7\0-------------------------------|


Bridge:

c |---7-7-7-7-7-7-7-7-6-6-6-6-6-6-6-6-7-|
g |---7-7-7-7-7-7-7-7-8-8-8-8-8-8-8-8-8-|
Eb|---8-8-8-8-8-8-8-8-8-8-8-8-8-8-8-8-9-|
Bb|---9-9-9-9-9-9-9-9-8-8-8-8-8-8-8-8-9-|
f |---9-9-9-9-9-9-9-9-6-6-6-6-6-6-6-6-7-|
C |---7-7-7-7-7-7-7-7-------------------|


Verse fill 1:

c |-------------|
g |-------------|
Eb|-------------|
Bb|-------------|
f |----5h7p5----|
C |-5h7-----7-0-|


Verse fill 2:
[ Tab from: http://www.guitartabs.cc/tabs/q/queens_of_the_stone_age/no_one_knows_tab_ver_3.html ]
c |-------12----|
g |-10b12-------|
Eb|----------9--|
Bb|-------------|
f |-------------|
C |-------------|


Chorus:


c |-------------------------------7-7-7-7-7-7-7-7-|
g |-------------------------------7-7-7-7-7-7-7-7-|
Eb|-9/-11/-12\-11/-14\-12/-16\-14-8-8-8-8-8-8-8-8-|
Bb|-x--x---x---x---x---x---x---x--9-9-9-9-9-9-9-9-|
f |-7/-9-/-10\-9-/-12\-10/-14\-12-9-9-9-9-9-9-9-9-|
C |-------------------------------7-7-7-7-7-7-7-7-|


Middle bit after the second chorus:


c |--------------------------------------|
g |-9-9-9-9-9-9-9-9-9-9-9-9------8-------|
Eb|-9-9-9-9-9-9-9-9-9-9-9-9-8-9--8-8-4-8-|
Bb|-9-9-9-9-9-9-9-9-9-9-9-9-9-10-8-9-7-9-|
f |-7-7-7-7-7-7-7-7-7-7-7-7-9-10-6-9-7-9-|
C |-------------------------7-8----7-5-7-|


c |--------------------------------------------------------------------------------|
g |-9-9-9-9-9-9-9-9-9-9-9-9------8-------------8------------8------------8---------|
Eb|-9-9-9-9-9-9-9-9-9-9-9-9-8-9--8-8-6-8--8-9--8-8-6-8-8-9--8-8-6-8-8-9--8-8-6-8-9-|
Bb|-9-9-9-9-9-9-9-9-9-9-9-9-9-10-8-9-7-9--9-10-8-9-7-9-9-10-8-9-7-9-9-10-8-9-7-9-9-|
f |-7-7-7-7-7-7-7-7-7-7-7-7-9-10-6-9-7-9--9-10-6-9-7-9-9-10-6-9-7-9-9-10-6-9-7-9-7-|
C |-------------------------7-8----7-5-7--7-8----7-5-7-7-8----7-5-7-7-8----7-5-7---|






Tabbed by ::
Comments