Queens Of The Stone Age - No One Knows Chords & Tabs

 

No One Knows Chords & Tabs

Queens Of The Stone Age Chords & Tabs

Version: 2 Type: Tab 1 rating
1 star 2 stars 3 stars 4 stars 5 stars
comments

No One Knows Tab

INTRO

e-----------
B-6-6-6-6---
G-3-3-3-3---
D-5-5-5-5---
A-3-3-3-3---
E---------7\

e-------------------------------------------------10~
B-10-10-10-8-10-10-10-8-------------10-10-10-8-10----
G-7--7--7--7-7--7--7--7-------------7--7--7--7-7-----
D-9--9--9--9-9--9--9--9----x3-Then--9--9--9--9-9-----
A-7--7--7--7-7--7--7--7-------------7--7--7--7-7-----
E-----------------------7\---------------------------

Verse

[ Tab from: http://www.guitartabs.cc/tabs/q/queens_of_the_stone_age/no_one_knows_tab_ver_2.html ]
  we got these rules......that enlist These and those
e------------------------------------------------------------------------------
B-x-10-x-10-x-10-x-10-x-10-x-10-x-10--x-8-x-8-x-8-x-8--10-10-10-8-10-10-10-8---
G-x-7--x-7--x-7--x-7--x-7--x-7--x-7---x-5-x-5-x-5-x-5--7--7--7--7-7--7--7--7---
D-x-9--x-9--x-9--x-9--x-9--x-9--x-9---x-7-x-7-x-7-x-7--9--9--9--9-9--9--9--9---
A-x-7--x-7--x-7--x-7--x-7--x-7--x-7---x-5-x-5-x-5-x-5--7--7--7--7-7--7--7--7---
E----------------------------------------------------------------------------7\

e----------------------------10~---|
B--------------10-10-10-8-10------.|
G--------------7--7--7--7-7--------| This means repeat!
D--------------9--9--9--9-9--------| (for the next Verse)
A-----5h7p5----7--7--7--7-7-------.|
E-5h7-------7----------------------|

Chorus


   And Ive.......
e----------------------------------------------------------------------------------
B----------------------------------------------------------------------------------
G-5--7--8--7--10--8--12--10---------------5--7--8--7--10--8--12--10----------------
D-x--x--x--x--x---x--x---x---7-7-7-7-7-7--x--x--x--x--x---x--x---x---7-7-7-7-7-7-x2
A-3--5--6--5--8---6--10--8---7-7-7-7-7-7--3--5--6--5--8---6--10--8---7-7-7-7-7-7---
E----------------------------5-5-5-5-5-5-----------------------------5-5-5-5-5-5---


Sorry, I havnt got the solo or bridge to this yet, probably the two best bits of the song,
if any one has them please tell me!!! e-mail me at jonnyp182@hotmail.com.
Comments