Queens Of The Stone Age - No One Knows Chords & Tabs

 

No One Knows Chords & Tabs

Queens Of The Stone Age Chords & Tabs

Version: 12 Type: Tab 0 ratings
1 star 2 stars 3 stars 4 stars 5 stars
comments

No One Knows Tab

*I haven't tabbed out the strumming pattern.
But if you just slam on the CD im sure you'll pick it up real quick*

Its standard tuning but you can tune bottom E down to C



Opening

e 3-----3-----3-----3-----------------------------------------------------------
B 4-----4-----4-----4-----------------------------------------------------------
G 5-----5-----5-----5-----------------------------------------------------------
D 5-----5-----5-----5-----------------------------------------------------------
A 3-----3-----3-----3-----------------------------------------------------------
E ------------------------------------------------------------------------------

Main Riff
            (Play quick) 
e  3-----3-----3--3---3-----3---3---3---3--x---x--------------------------------
B  4-----6-----6--4---4-----6---6---4---4--x---x--------------------------------
G  5-----3-----3--3---5-----3---3---3---5--x---x--------------------------------
D  5-----5-----5--5---5-----5---5---5---5--x---x--------------------------------
A  3-----3-----5--3---3-----3---3---3---3--x---x--------------------------------
E  -----------------------------------------------------------------------------

For first verse play main riff 3 times then play......(riff 2)

e  3----3----3---3---3---3---3--------------------------------------------------
B  6----6----4---4---6---4---4--------------------------------------------------
G  3----3----3---5---3---3---5--------------------------------------------------
D  5----5----5---5---5---5---5--------------------------------------------------
A  3----3----3---3---3---3---3--------------------------------------------------
E  -----------------------------------------------------------------------------

Then when Josh starts to sing

   We get these rules to ........
e  3---3---3---3----------------------
B  4---4---4---4----------------------
G  5---5---5---5----------------------
D  5---5---5---5----------------------
A  3---3---3---3----------------------
E  -----------------------------------

basically play out Cminor with the struming pattern on the CD
until Josh just stops singing, 
'these and those'
when it changes to Gmajor then Bmajor

e  3-----3-----3------3-----2----2----2----2--
B  3-----3-----3------3-----4----4----4----4--
G  4-----4-----4------4-----4----4----4----4--
D  5-----5-----5------5-----4----4----4----4--
A  5-----5-----5------5-----2----2----2----2--
E  3-----3-----3------3-----------------------
[ Tab from: http://www.guitartabs.cc/tabs/q/queens_of_the_stone_age/no_one_knows_tab_ver_12.html ]
Until after he sings 'know one knows'
when u go bck to the main riff once then to riff 2 once

Chorus:
e  -------------------------3---3---3---3
B  ------6------3-------6---3---3---3---3
G  5------------------------4---4---4---4  play x4 
D  -------------------------5---5---5---5  
A  -------------------------5---5---5---5
E  -------------------------3---3---4---3

then back to main riff once then riff 2 once.
then play out the verse as in verse 1.

then play out the chorus.
then the song goes into this

   (strum hard)
e  ---------------------------------------
B  ---------------------------------------
G  ---------------------------------------
D  5---5---5---5--------------------------
A  3---3---3---3--------------------------
E  3---3---3---3--------------------------

then its quick power chords.

e  -----------------------------------
B  -----------------------------------
G  -----------------------------------
D  3--5--6--5--3--5-------------------
A  3--5--6--5--3--5-------------------
E  1--3--4--3--1--3-------------------

then play out bass notes of Cminor again
e  -----------------------------------
B  -----------------------------------
G  -----------------------------------
D  5---5---5---5----------------------
A  3---3---3---3----------------------
E  3---3---3---3----------------------

then back into the power chords x4 then play c minor
e  -----------------------------------
B  -----------------------------------
G  -----------------------------------
D  3--5--6--5--3--3-------------------
A  3--5--6--5--3--5-------------------
E  1--3--4--3--1--5-------------------

then theres some bass

i havent figured out the guitar solo yet. If anyone knows it plz tab it!
I think the notes are

e  ----------------------------------------
B  -------3---4----6---8----9----11---13----
G  ---3---5---------------------------------
D  5----------------------------------------
A  -----------------------------------------
E  -----------------------------------------

not in that order though. 

then its another bass solo

then he plays cm for half as long as in the verses.then he plays the
rest of the verse (gmaj, bmaj)
 
e  3---3---3--3--2--2-----------------------------
B  4---4---3--3--4--4-----------------------------
G  5---5---4--4--4--4-----------------------------
D  5---5---5--5--4--4-----------------------------
A  3---3---5--5--2--2-----------------------------
E  --------3--3-----------------------------------

then the main riff and then riff 2.

then gmaj then bmaj. Then strum cminor hard 4 times. 

thats it can someone email me the solo or tab it out. 
Thanx
Comments