Queens Of The Stone Age - No One Knows Chords & Tabs

 

No One Knows Chords & Tabs

Queens Of The Stone Age Chords & Tabs

Version: 5 Type: Bass Tab 0 ratings
1 star 2 stars 3 stars 4 stars 5 stars
comments

No One Knows Bass Tab

   
Im not 100% sure if this is right because it's in standard tuning, but it
sounds OK when you play along to it. 

Intro :

G|---------
D|---------
A|-5-5-5-5-
E|---------

Verse :

G|-----------------------
D|-----------------------
A|-------5---5---5-------
E|-12/-0---0---0---0-12/-

Occassionaly in the verse this is played :

G|------------
D|------------
A|-12-11-10-9-
E|------------

Chorus :

G|---------------------------------------
D|---------------------------------------
A|-----------------12-11-10-9-9-10-11-12-
E|-5-0-5-0-5-0-5-0-----------------------
[ Tab from: http://www.guitartabs.cc/tabs/q/queens_of_the_stone_age/no_one_knows_btab_ver_5.html ]
G|--------------------------------
D|--------------------------------
A|-----------------12h-11h-10h-9h-
E|-5-0-5-0-5-0-5-0----------------

Bass solo :

This is actually an easier way of playing the solo, but it's still sounds the
same. Play this part really fast.

G|-------------------------------------------------------------------
D|-------------------------------------7-7-7-7-7-5-5-5-5-5-----------
A|-7-7-7-7-7-7-7-7p5-7-7-7-7-7-7-7-7p5-------------------------------
E|---------------------------------------------------------5-5-5-5-5-

Part after after guitar/bass solo :

G|---------------
D|---------------
A|---5---5---5---
E|-0---0---0---0-

KEY :

h = Hold note
/ = Slide
Comments