Queens Of The Stone Age - No One Knows Chords & Tabs

 

No One Knows Chords & Tabs

Queens Of The Stone Age Chords & Tabs

Version: 4 Type: Bass Tab 0 ratings
1 star 2 stars 3 stars 4 stars 5 stars
comments

No One Knows Bass Tab

Queens of the stone age - no one knows
if you don't like my version 2 try this one,
got it from Bass tab archive:

This song is alot harder to play than i thought! it sounded really easy 
but on listening to the song a few times i realised that there were
lots of bass fills etc that are pretty constant! this has made it extremely hard to tab!
My advice is to listen to the song for timing! I suggest playing with fingers
as there is lots of slapping and popping! Dont attempt this if
your a learner!

Intro
    0:01-0:05          (verse)0:14                bass fill 1 0:15
G|-------------|---------------------------------|--------------|
D|-------------|---------------------------------|--------------| 
A|-------------|---------------------------------|-----6-8------|
E|-h8-h8-h8-h8-|-h8-p8-h8-p8-h8-p8-h8-p8-h8-p8---|-8-0----------|

Verse 0:16                        bass fill 1 0:26
   
G|---------------------------------|--------------|
D|---------------------------------|--------------| 
A|---------------------------------|-----6-8------|
E|-h8-p8-h8-p8-h8-p8-h8-p8-h8-p8---|-8-0----------|

 Bridge 0:27

G|--------------------------------- |
D|--------------------------------- | 
A|-10-10-10-10-10-------------------|
E|-----------------11-11-11-11-11-11|

Verse 0:33                            0:37

G|---------------------------------|--------------|
D|---------------------------------|--------------| 
A|---------------------------------|-----6-8------|
E|-h8-p8-h8-p8-h8-p8-h8-p8-h8-p8---|-8-0----------|

  0:38                                0:48
G|---------------------------------|--------------|
D|---------------------------------|--------------| 
A|---------------------------------|-11-10-8------|
E|-h8-p8-h8-p8-h8-p8-h8-p8-h8-p8---|---------10---|
[ Tab from: http://www.guitartabs.cc/tabs/q/queens_of_the_stone_age/no_one_knows_btab_ver_4.html ]
  0:50                                 0:55          0:57-58 bass fill 2
G|----------------------------------|--------------|---------------|
D|----------------------------------|--------------|------8h10-8---| 
A|-10-10-10-10-10-------------------|--------------|-8h10--------10|
E|-----------------11-11-11-11-11-11|-h8-p8-h8-p8--|---------------|

   00:59 - 1:01             1:01-1:13
G|--------|--------------|---------------------------------|
D|--------|--------------|---------------------------------|
A|--------|-10-8---------|---------------------------------|
E|-h8-p8--|------10------|-h8-p8-h8-p8-h8-p8-h8-p8-h8-p8---|

   1:13-1:35
G|---------------------------------|
D|---------------------------------| 
A|-------5--8---10-----------------|
E|-8-10----------------------------|

   1:35-1:50                        1:50-1:52 bass fill 1    
G|---------------------------------|--------------|
D|---------------------------------|--------------| 
A|---------------------------------|-----6-8------|
E|-h8-p8-h8-p8-h8-p8-h8-p8-h8-p8---|-8-0----------|

rpt verse till 1:58, this is the tricky bit as if the song wasnt hard enough!
1:58-2:00 use bass fill 2. chorus kicks back in.

Overdrive part 2:37-2:59 

G|---------------------------------|----------------------|
D|---------------------------------|----------------------| 
A|-------5--8---10-----------------|----------------------|
E|-8-10----------------------------|-8888888888888--------|

Very fast part 3:00-3:15

G|---------------------------------|
D|-----------------9---------------|
A|------------10-11-10-8-10--------|
E|-888888888-----------------------|

Bass solo

3:16 3:39

G|--------------------9h10-9h10-9h101010-10-9-8--------|
D|----9h10-9h1010-9h10-------------------------8-------|
A|-----------------------------------------------------|
E|-----------------------------------------------------|

3:39 back to verse repeating bass fills as necessary!

Without a doubt the best song on the qotsa new album!!
Comments