Queens Of The Stone Age - No One Knows Chords & Tabs

 

No One Knows Chords & Tabs

Queens Of The Stone Age Chords & Tabs

Version: 1 Type: Bass Tab 2 ratings
1 star 2 stars 3 stars 4 stars 5 stars
comments

No One Knows Bass Tab

NO ONE KNOWS

G---------------------|						INTRO
D---------------------|						X1
A--7---7—7—7-----|
E------------------12/-|

G--------------------------|					RIFF 1
D--------------------------|					X3
A-----7---7---7----------|
E---0---0---0---0--12/-|

G---------------------------|					RIFF 2
D-------------------------5-|					X1
A----7--7-------------5----|
E---0--0--0--5—7-------|

G----------------------------|					RIFF3
D-----------------------------|					X3
A-----7---7---7-------------|
E—0---0---0---0—5--3-|

G-------------------------------|					RIFF 4
D---------------9--7------------|					X1
A-----7---7-----------9--7----|
E—0---0---0------------------

G-----------------------------------------------|			FILL1
D----------------------------------------------|			X2
A-------------------------------------6--6--6--6--6--5--6--6--|
E---7---7---7---7---7---7---7---7-----------------------------|

RIFF1 X1
RIFF 2 X1

G-------------------------------|--------------------|		RIFF 5
D--------------------------------|--9---7-----------|		X1
A-----7---7---7---7---7---7--|-----------9---9--|
E—0---0---0---0---0---0----|-------------------|

G------------------------------- --------|-----------|
D----------------------------------------|------------|			FILL 2 
A----------------------6---5---6---6--|-7---------|			X1
E---7---7---7---7---------------------|0--7--12/-|
	
RIFF 1 X2
G-----------------------------------------|
D------------------------------------------|				RIFF 6
A--7--9--10--9--|--12--10--14—12-|			X1
E------------------------------------------|


G-----------------|
D-----------------|						FILL3
A-----------------|						X2
E--7--7--7--7--|

RIFF 6 X1
FILL 3 X1

G--9--9--7--7--|--9--7---------------------|
D-----------------|---------9--7--9--7-------|
A-----------------|-----------------------10/--|
E-----------------|-----------------------------|

FILL3 X2

G--9--9--9--9--9--9--11--11--11--11--11--11--|
D--------------------------------------------------------|		RIFF 7
A--------------------------------------------------------|		X1
E--------------------------------------------------------|


G--12--12--12--12--12--12--14--14--14--14--14--14--|	RIFF 8
D------------------------------------------------------------------|	X1
A------------------------------------------------------------------|
E------------------------------------------------------------------|

FILL 3 X1
RIFF 1 X1
RIFF 2 X1
RIFF 3 X3
RIFF 4 X1
FILL 1 X 3

[ Tab from: http://www.guitartabs.cc/tabs/q/queens_of_the_stone_age/no_one_knows_btab.html ]
G-------------|------------------------|------------------------|
D--------------|-----------------------|-------------------------| 	RIFF 9
A----7---------|--7---7---7----------|---7---7---7----------|	X1
E--0--0--12/-|-0---0---0---0--12/-|-0---0---0---0--12/-|


RIFF 6 X1
FILL 3 X2
RIFF 7 X1
RIFF X1
FILL 3 X2


G-------------------------------|
D-------------------------------|					FILL 4 
A--7--7--7--7--7--7--7--7--|					X3
E-------------------------------|

G--------------------------|
D--------------------------|					RIFF 10
A-----------6-------------|					X1
E—7—8-----7—5—7-|

FILL 4 X3
RIFF 10 X4

G-------------------------------------------------|
D--12--14--14--14--14--14--14--14--14--|			RIFF 11 
A-------------------------------------------------|			X2
E-------------------------------------------------|

G-----------------------------12--14--14--14--14|
D--12--14--14--14--14-----------------------------|		RIFF 12
A-------------------------------------------------------|		X1
E-----------------------------------------------------|

G-------------------------------------------------------|
D-12--14--14--14--14-----------------------------|		RIFF13
A-----------------12--12--12--14--14--14—14-|		X1
E-------------------------------------------------------|

RIFF 11 X2
RIFF 12 X1

G-----------------12—14—14-------------------------------|
D--12--14--12------------------12--14--14----------------|	RIFF14 
A------------------------------------------------12--14--14--|	X1
E----------------------------------------------------------------|

G-------------------------------------------------|
D--14--14--14--14--14--14--14--14--14-|			RIFF 15 
A-------------------------------------------------|			X 1
E-------------------------------------------------|

RIFF 11 X1
RIFF 12 X 1

G-----------------12--16--16--12--14--14-------------------|
D--12--14--14----------------------------------12--14--14--|	RIFF 16
A------------------------------------------------------------------|	X1
E------------------------------------------------------------------|

RIFF 11 X2
RIFF 14 X2


G--------|							RIFF 17
D--------|							X20		
A-----7-|
E---0---|

RIFF 2 X1

G-----------------|---------------|----------------|--9—7--------|
D-----------------|----9--7------|----------------|----------9--7-|	RIFF 18
A-----------------|------------9--|--6--6--6--6-|-----------------|	X1
E--7--7--7--7--|--7-------------|---------------|-----------------|

RIFF 1 X1
RIFF 4 X1
FILL 1 X1

G---------------------|
D---------------------|
A---7---7---7---7--|
E---------------------|


Thats the song for sure just figure out the timing yourself
Comments