Queens Of The Stone Age - Mosquito Song Chords & Tabs

 

Mosquito Song Chords & Tabs

Queens Of The Stone Age Chords & Tabs

Version: 5 Type: Tab 0 ratings
1 star 2 stars 3 stars 4 stars 5 stars
comments

Mosquito Song Tab

                              Mosquito Song                                   


Guitar 1
                                                            
E||------------------------------|-------------------------|
B||---------1--------------------|--------1----------1-----|
G||*--------1-----0h1------------|--------1--0-------0--0--|
D||*--------3---------1h3--------|-----1-----1-------2--2--|
A||------3-----3----------1h3p1--|-----------1-------3--1--|
E||---1--------------------------|--4-------------3--------|x10
                                                                               
------------------------|----------------------------|------------------------|
--2----2--2----2--2--1--|--1-------------------------|--1----1--1----1-----1--|
--3----3--3----3--3--0--|--1-------1--0h1------------|--0----0--0----0-----0--|
--3----3--3----3--3--1--|--3--------------1h3--------|--2----2--2----2--2--1--|
--1----1--1----1--1-----|--3----3-------------1h3p1--|--3----3--3----3--3-----|
------------------------|--1-------------------------|--3----3----------3-----|


                                                                            
------------------------|-------------------------|------------------------|
--1----1--1----1--1--1--|--2----2--2--2--2--2--1--|--1----1--1----1--1--1--|
--1----1--1----1--1--0--|--3----3--3--3--3--3--0--|--1----1--1----1--1--0--|
--3----3--3----3--3--1--|--3----3--3--3--3--3--1--|--3----3--3----3--3--1--|
--3----3----------3-----|--1----1--1--1--1--1-----|--3----3----------3-----|
--1----1----------1-----|-------------------------|--1----1----------1-----|


                                                                     
-------------------|------------------|-----------------------------|
--1----------------|------------------|--------1--------------------|
--0----------------|------------------|--------1-----0h1------------|
--2----------------|------------------|--------3---------1h3--------|
--3----------------|------------------|-----3-----3----------1h3p1--|
--3----------------|------------------|--1--------------------------|


                                                        
-------------------------|-----------------------------|
--------1----------1-----|--------1--------------------|
--------1--0-------0--0--|--------1-----0h1------------|
-----1-----1-------2--2--|--------3---------1h3--------|
-----------1-------3--1--|-----3-----3----------1h3p1--|
--4-------------3--------|--1--------------------------|x9

                                                                                
-------------------------|------------------------|----------------------------|
--------1----------1-----|--3-------3----3--3--1--|--1-------------------------|
--------1--0-------0--0--|--3----3--3----3--3--0--|--1-------1--0h1------------|
-----1-----1-------2--2--|--3----3--3----3--3--1--|--3--------------1h3--------|
-----------1-------3--1--|--1----1--1----1--1-----|--3----3-------------1h3p1--|
--4-------------3--------|------------------------|--1-------------------------|


                                                                           
------------------------|------------------------|------------------------|
--1----1--1----1-----1--|--1----1--1----1--1--1--|--3----3----3--3--3--1--|
--0----0--0----0-----0--|--1----1--1----1--1--0--|--3----3----3--3--3--0--|
--2----2--2----2--2--1--|--3----3--3----3--3--1--|--3----3----3--3--3--1--|
--3----3--3----3--3-----|--3----3----------3-----|--1----1----1--1--1-----|
--3----3----------3-----|--1----1----------1-----|------------------------|


                                                                
------------------------|-------------------|------------------|
--1----1--1----1--1--1--|--1----------------|------------------|
--1----1--1----1--1--0--|--0----------------|------------------|
--3----3--3----3--3--1--|--2----------------|------------------|
--3----3----------3-----|--3----------------|------------------|
--1----1----------1-----|--3----------------|------------------|
 

[ Tab from: http://www.guitartabs.cc/tabs/q/queens_of_the_stone_age/mosquito_song_tab_ver_5.html ]
                                                                            
------------------|------------------|------------------|------------------|
------------------|------------------|------------------|------------------|
------------------|------------------|------------------|------------------|
------------------|------------------|------------------|------------------|
------------------|------------------|------------------|------------------|
------------------|------------------|------------------|------------------|x4
                                                                    
------------------|------------------|-----------------------------|
------------------|------------------|--------1--------------------|
------------------|------------------|--------1-----0h1------------|
------------------|------------------|--------3---------1h3--------|
------------------|------------------|-----3-----3----------1h3p1--|
------------------|------------------|--1--------------------------|


                                                        
-------------------------|-----------------------------|
--------1----------1-----|--------1--------------------|
--------1--0-------0--0--|--------1-----0h1------------|
-----1-----1-------2--2--|--------3---------1h3--------|
-----------1-------3--1--|-----3-----3----------1h3p1--|
--4-------------3--------|--1--------------------------|x2
                                                                                
-------------------------|-----------------------------|-----------------------|
--------1----------1-----|--------1--------------------|--------1-----1--------|
--------1--0-------0--0--|--------1-----0h1------------|--------1--0--0--------|
-----1-----1-------2--2--|--------3---------1h3--------|-----1-----1--2--------|
-----------1-------3--1--|-----3-----3----------1h3p1--|-----------1--3--------|
--4-------------3--------|--1--------------------------|--4-----------3--------|
                                                                    
------------------|------------------|-----------------------------|
------------------|------------------|--------1--------------------|
------------------|------------------|--------1-----0h1------------|
------------------|------------------|--------3---------1h3--------|
------------------|------------------|-----3-----3----------1h3p1--|
------------------|------------------|--1--------------------------|

                                                        
-------------------------|-----------------------------|
--------1----------1-----|--------1--------------------|
--------1--0-------0--0--|--------1-----0h1------------|
-----1-----1-------2--2--|--------3---------1h3--------|
-----------1-------3--1--|-----3-----3----------1h3p1--|
--4-------------3--------|--1--------------------------|x6
                                                                                
-------------------------|-----------------------------|-----------------------|
--------1----------1-----|--------1--------------------|--------1-----1--------|
--------1--0-------0--0--|--------1-----0h1------------|--------1--0--0--------|
-----1-----1-------2--2--|--------3---------1h3--------|-----1-----1--2--------|
-----------1-------3--1--|-----3-----3----------1h3p1--|-----------1--3--------|
--4-------------3--------|--1--------------------------|--4-----------3--------|
                                                       
-----------------------------|-------------------------|
--------1--------------------|--------1----------1-----|
--------1-----0h1------------|--------1--0-------0--0--|
--------3---------1h3--------|-----1-----1-------2--2--|
-----3-----3----------1h3p1--|-----------1-------3--1--|
--1--------------------------|--4-------------3--------|x13
                                                                        
------------------------|------------------------|------------------------|
--3-------3----3--3--1--|--1----1--1----1--1--1--|--1----1--1----1-----1--|
--3----3--3----3--3--0--|--1----1--1----1--1--0--|--0----0--0----0-----0--|
--3----3--3----3--3--1--|--3----3--3----3--3--1--|--2----2--2----2--2--1--|
--1----1----------1-----|--3----3----------3-----|--3----3--3----3--3-----|
------------------------|--1----1----------1-----|--3----3----------3-----|

                                                                           
------------------------|------------------------|------------------------|
--1----1--1----1--1--1--|--3-------3----3--3--1--|--1----1--1----1--1--1--|
--1----1--1----1--1--0--|--3----3--3----3--3--0--|--1----1--1----1--1--0--|
--3----3--3----3--3--1--|--3----3--3----3--3--1--|--3----3--3----3--3--1--|
--3----3----------3-----|--1----1----------1-----|--3----3----------3-----|
--1----1----------1-----|------------------------|--1----1----------1-----|


                                        
-------------------|------------------||
--1----------------|------------------||
--0----------------|------------------||
--2----------------|------------------||
--3----------------|------------------||
--3----------------|------------------||
Comments