Queens Of The Stone Age - Mosquito Song Chords & Tabs

 

Mosquito Song Chords & Tabs

Queens Of The Stone Age Chords & Tabs

Version: 4 Type: Tab 0 ratings
1 star 2 stars 3 stars 4 stars 5 stars
comments

Mosquito Song Tab

Artist: Queens Of The Stone Age
Album: Songs For The Deaf
Track: Mosquito Song

This is an amazing added track on the end of their 3rd album "Songs For The Deaf".
Unfortunately QOTSA play it with a 12 string guitar, which i dont have, and in CGCFAD
tuning, whcih i couldnt be arsed to tune to. So i decided to write the tabs for it in
standard tuning. And this is what i came up with.....

p - pick off
h - hammer on
* - let ring

Intro
e--------------------------------------------------------------------
b-----1-1p0-----------------------------1-1p0------------------------
g-----2-----2p0------------0-----1------2-----2p0------------0-----1-
D---2-----------2p0------2-2-2---2----2-----------2p0------2-2-2---2-
A-0-----------------0--2-------3----0-----------------0--2-------3---
E--------------------------------------------------------------------

Verse
e--------------------------------------------------------------------
b-----1-1p0-----------------------------1-1p0------------------------
g-----2-----2p0------------0-----1------2-----2p0------------0-----1-
D---2-----------2p0------2-2-2---2----2-----------2p0------2-2-2---2-
A-0-----------------0--2-------3----0-----------------0--2-------3---
E--------------------------------------------------------------------
      I know, i know...
e--------------------------------------------------------------------
b-----1-1p0-----------------------------1-1p0------------------------
g-----2-----2p0------------0-----1------2-----2p0------------0-----1-
D---2-----------2p0------2-2-2---2----2-----------2p0------2-2-2---2-
A-0-----------------0--2-------3----0-----------------0--2-------3---
E--------------------------------------------------------------------
  And leave you there...
e--------------------------------------------------------------------
b-----1-1p0-----------------------------1-1p0------------------------
g-----2-----2p0------------0-----1------2-----2p0------------0-----1-
D---2-----------2p0------2-2-2---2----2-----------2p0------2-2-2---2-
A-0-----------------0--2-------3----0-----------------0--2-------3---
E--------------------------------------------------------------------
      When u walk, among the trees...
e--------------------------------------------------------------------
b-----1-1p0-----------------------------1-1p0------------------------
g-----2-----2p0------------0-----1------2-----2p0------------0-----1-
D---2-----------2p0------2-2-2---2----2-----------2p0------2-2-2---2-
A-0-----------------0--2-------3----0-----------------0--2-------3---
E--------------------------------------------------------------------
  The further i go, the less i know...

Chorus
e-2-2-222-0-0----------------------0-0-000-2-2-222-0-0-000----
b-3-3-333-1-1-1p0-----------0-0-00-1-1-111-3-3-333-1-1-111-0*-
g-2-2-222-2-2-----2p0-------1-1-11-2-2-222-2-2-222-2-2-222-1*-
D-0-0-000-2-2---------2p0---2-2-22-2-2-222-0-0-000-2-2-222-2*-
A-------------------------0-2-2-22-------------------------2*-
E-------------------------------------------------------------

Verse 1:09
e--------------------------------------------------------------------
b-----1-1p0-----------------------------1-1p0------------------------
g-----2-----2p0------------0-----1------2-----2p0------------0-----1-
D---2-----------2p0------2-2-2---2----2-----------2p0------2-2-2---2-
A-0-----------------0--2-------3----0-----------------0--2-------3---
E--------------------------------------------------------------------
[ Tab from: http://www.guitartabs.cc/tabs/q/queens_of_the_stone_age/mosquito_song_tab_ver_4.html ]
e--------------------------------------------------------------------
b-----1-1p0-----------------------------1-1p0------------------------
g-----2-----2p0------------0-----1------2-----2p0------------0-----1-
D---2-----------2p0------2-2-2---2----2-----------2p0------2-2-2---2-
A-0-----------------0--2-------3----0-----------------0--2-------3---
E--------------------------------------------------------------------
      Fat and soft...
e--------------------------------------------------------------------
b-----1-1p0-----------------------------1-1p0------------------------
g-----2-----2p0------------0-----1------2-----2p0------------0-----1-
D---2-----------2p0------2-2-2---2----2-----------2p0------2-2-2---2-
A-0-----------------0--2-------3----0-----------------0--2-------3---
E--------------------------------------------------------------------
  You know i'm told...
e--------------------------------------------------------------------
b-----1-1p0-----------------------------1-1p0------------------------
g-----2-----2p0------------0-----1------2-----2p0------------0-----1-
D---2-----------2p0------2-2-2---2----2-----------2p0------2-2-2---2-
A-0-----------------0--2-------3----0-----------------0--2-------3---
E--------------------------------------------------------------------
      Cutting boards...
e--------------------------------------------------------------------
b-----1-1p0-----------------------------1-1p0------------------------
g-----2-----2p0------------0-----1------2-----2p0------------0-----1-
D---2-----------2p0------2-2-2---2----2-----------2p0------2-2-2---2-
A-0-----------------0--2-------3----0-----------------0--2-------3---
E--------------------------------------------------------------------
  Promising...

Chorus
e-2-2-222-0-0----------------------0-0-000-2-2-222-0-0-000----
b-3-3-333-1-1-1p0-----------0-0-00-1-1-111-3-3-333-1-1-111-0*-
g-2-2-222-2-2-----2p0-------1-1-11-2-2-222-2-2-222-2-2-222-1*-
D-0-0-000-2-2---------2p0---2-2-22-2-2-222-0-0-000-2-2-222-2*-
A-------------------------0-2-2-22-------------------------2*-
E-------------------------------------------------------------

(piano and cello bit)

Verse 3:05 (with drums and bells)
e--------------------------------------------------------------------
b-----1-1p0-----------------------------1-1p0------------------------
g-----2-----2p0------------0-----1------2-----2p0------------0-----1-
D---2-----------2p0------2-2-2---2----2-----------2p0------2-2-2---2-
A-0-----------------0--2-------3----0-----------------0--2-------3---
E--------------------------------------------------------------------

e----------------------------------------------------------------
b-----1-1p0-----------------------------1-1p0--------------------
g-----2-----2p0------------0-----1------2-----2p0------------0---
D---2-----------2p0------2-2-2---2----2-----------2p0------2-2-2*
A-0-----------------0--2-------3----0-----------------0--2-------
E----------------------------------------------------------------

pause......and 3:29
e--------------------------------------------------------------------
b-----1-1p0-----------------------------1-1p0------------------------
g-----2-----2p0------------0-----1------2-----2p0------------0-----1-
D---2-----------2p0------2-2-2---2----2-----------2p0------2-2-2---2-
A-0-----------------0--2-------3----0-----------------0--2-------3---
E--------------------------------------------------------------------

e--------------------------------------------------------------------
b-----1-1p0-----------------------------1-1p0------------------------
g-----2-----2p0------------0-----1------2-----2p0------------0-----1-
D---2-----------2p0------2-2-2---2----2-----------2p0------2-2-2---2-
A-0-----------------0--2-------3----0-----------------0--2-------3---
E--------------------------------------------------------------------

12 string continues verse riff whilst 6 string plays solo but i could not be bothered
to tab it cause its done in the different tuning as well.

Verse 4:28
e----------------------------------
b-----1-1p0------------------------
g-----2-----2p0------------0-----1-
D---2-----------2p0------2-2-2---2-
A-0-----------------0--2-------3---
E----------------------------------

e--------------------------------------------------------------------
b-----1-1p0-----------------------------1-1p0------------------------
g-----2-----2p0------------0-----1------2-----2p0------------0-----1-
D---2-----------2p0------2-2-2---2----2-----------2p0------2-2-2---2-
A-0-----------------0--2-------3----0-----------------0--2-------3---
E--------------------------------------------------------------------
      Simmering...
e--------------------------------------------------------------------
b-----1-1p0-----------------------------1-1p0------------------------
g-----2-----2p0------------0-----1------2-----2p0------------0-----1-
D---2-----------2p0------2-2-2---2----2-----------2p0------2-2-2---2-
A-0-----------------0--2-------3----0-----------------0--2-------3---
E--------------------------------------------------------------------
  The sweetest greese...
e--------------------------------------------------------------------
b-----1-1p0-----------------------------1-1p0------------------------
g-----2-----2p0------------0-----1------2-----2p0------------0-----1-
D---2-----------2p0------2-2-2---2----2-----------2p0------2-2-2---2-
A-0-----------------0--2-------3----0-----------------0--2-------3---
E--------------------------------------------------------------------
      So you scream...
e--------------------------------------------------------------------
b-----1-1p0-----------------------------1-1p0------------------------
g-----2-----2p0------------0-----1------2-----2p0------------0-----1-
D---2-----------2p0------2-2-2---2----2-----------2p0------2-2-2---2-
A-0-----------------0--2-------3----0-----------------0--2-------3---
E--------------------------------------------------------------------
  We all will feed...

Chorus
e-2-2-222-0-0----------------------0-0-000-2-2-222-0-0-000----
b-3-3-333-1-1-1p0-----------0-0-00-1-1-111-3-3-333-1-1-111-0*-
g-2-2-222-2-2-----2p0-------1-1-11-2-2-222-2-2-222-2-2-222-1*-
D-0-0-000-2-2---------2p0---2-2-22-2-2-222-0-0-000-2-2-222-2*-
A-------------------------0-2-2-22-------------------------2*-
E-------------------------------------------------------------

and thats it. simple!
Comments