Queens Of The Stone Age - Mosquito Song Chords & Tabs

 

Mosquito Song Chords & Tabs

Queens Of The Stone Age Chords & Tabs

Version: 2 Type: Tab 1 rating
1 star 2 stars 3 stars 4 stars 5 stars
comments

Mosquito Song Tab

#----------------------------------PLEASE NOTE---------------------------------#
#This file is the author's own work and represents their interpretation of the #
#song. You may only use this file for private study, scholarship, or research. #
#------------------------------------------------------------------------------#

Queens of the Stone Age
Mosquito Song
TABBED BY KEV M.

Normal Tuning

//QotSA are the greatest band ever, go get their new cd\\

Other cool qotsa songs
-No One Knows
-First it Giveth
-The Lost Art of keeping a secret
-songs for the dead
-go with the flow
-do it again

This is an acoustic song, so go get yourself an acoustic guitar
not 100% correct, but what are you gonna do

h=hammer on
()=hold out

Intro, Verse
[ Tab from: http://www.guitartabs.cc/tabs/q/queens_of_the_stone_age/mosquito_song_tab_ver_2.html ]
|------------------------------------------------------------------------|
|------1----h1----------1------------------------------------------------|
|------2------h2--------0--------1---------------------------------------|
|----2---2------h2----2---2------2---------------------------------------|
|--0--------------0-3----------2---2-------------------------------------|
|----------------------------0-------------------------------------------|   x9

Chorus

|------------------------------------------------------------------------------------|
|----3-3-3-3-3---1-1-1--h1------------------------------------1-1-1-1-1--------------|
|----2-2-2-2-2---2-2-2----h2-------------1-1-1-1-1------------2-2-2-2-2--------------|
|----0-0-0-0-0---2-2-2------h2-----------2-2-2-2-2------------2-2-2-2-2--------------|
|-----------------------------0----------2-2-2-2-2-----------------------------------|
|------------------------------------------------------------------------------------|

Chorus (cont.)

|------------------------------------------------------------------------------------|
|----3-3-3-3-3---1-1-1-1-1-----------------------------------------------------------|
|----2-2-2-2-2---2-2-2-2-2---------------(1)-----------------------------------------|
|----0-0-0-0-0---2-2-2-2-2---------------(2)-----------------------------------------|
|----------------------------------------(2)-----------------------------------------|
|------------------------------------------------------------------------------------|x1
Comments