Queens Of The Stone Age - Mosquito Song Chords & Tabs

 

Mosquito Song Chords & Tabs

Queens Of The Stone Age Chords & Tabs

Version: 1 Type: Tab 0 ratings
1 star 2 stars 3 stars 4 stars 5 stars
comments

Mosquito Song Tab

queens of the stone age - mosquito song
songs for the 

not 100% accurate but at least it's in the right key if you want to play 
along with the cd. also it's not the whole song, i'll tab the rest some 
other day or not at all.

standard tuning

_verse
[ Tab from: http://www.guitartabs.cc/tabs/q/queens_of_the_stone_age/mosquito_song_tab.html ]
e:------  ------------  ---------  -------
b:----1-  ------------  ---------  -----1-
G:----1-  -0h1--------  -----2---  -----0-
D:------  ----1h3-----  -----3---  ---2---
A:---3--  -------1h3--  ---3-----  -3-----
E:-1----  ----------4-  -4-------  -------



_chorus

e:-1-  -1-  --------------  -3-  -1-
b:-1-  -1-  --------------  -3-  -1-
G:-2-  -1-  -0-0h1--------  -3-  -1-
D:-2-  -3-  ------1h3-----  -5-  -3-
A:-1-  -3-  ---------1h3--  -5-  -3-
E:---  -1-  ------------4-  -3-  -1-

e:-1-  -1-  -3-
b:-1-  -1-  -3-
G:-2-  -1-  -3- let ring
D:-2-  -3-  -5-
A:-1-  -3-  -5-
E:---  -1-  -3-
Comments