Queens Of The Stone Age - Mosquito Song Chords & Tabs

 

Mosquito Song Chords & Tabs

Queens Of The Stone Age Chords & Tabs

Version: 1 Type: Bass Tab 0 ratings
1 star 2 stars 3 stars 4 stars 5 stars
comments

Mosquito Song Bass Tab

   
QOTSA - MOSQUITO SONG - BASS TAB

There isn't an actual bass line to this song but the one 
i've done works...

Verse
G|---------|
D|---------|  x10
A|-------3-|
E|-1---4---|

Chorus
G|-------------------------|
D|-------------------3-3-3-|  x2
A|-1-1-1-------3-3-3-------|
E|-------1-1-1-------------|

Verse  x10
Chorus x2
[ Tab from: http://www.guitartabs.cc/tabs/q/queens_of_the_stone_age/mosquito_song_btab.html ]
And the light says...
G|------------------------------------------------------------|
D|------------------------------------------------------------|  x1
A|------------------------------------------------------------|
E|-1-1-1-1-4-4-4-4-3-3-3-3-6-6-6-6-4-4-4-4-8-8-8-8-3-3-3-3-13-|

Verse  x25
Chorus x2

Just listen to it and play it as common time (4/4)
Questions/Comments? michaelbryant2003@hotmail.com
Comments