Queens Of The Stone Age - Monsters In The Parasol Chords & Tabs

 

Monsters In The Parasol Chords & Tabs

Queens Of The Stone Age Chords & Tabs

Version: 4 Type: Tab

Monsters In The Parasol Tab

   
*****************************************************
* QUEENS OF THE STONE AGE - MONSTERS IN THE PARASOL *
*****************************************************

*Tunning: Standard (E-A-D-G-B-e).
*Album: Rated R (2000).
*Words and music by: Joshua Homme & Mario Lalli.

Joshua Homme: Lead Vocals, Guitar.
Nick Oliveri: Bass, Backing Vocals.
Dave Catching: Guitar.
Gene Trautmann: Drums.
Chris Gross: Backing Vocals.

*Transcribed by: Juan Angel De Camillis

There are the main parts of the song. Listen to them to get it right.
_____________________________________________________________________________


*INTRO:
e|--------------|--------------|--------------|--------------|
B|--------------|--------------|--------------|---------5----|
G|--------------|--------------|--------------|---------5----| x4
D|--------------|--------------|--------------|--------------|
A|--7--7--7--7--|--7--7--7--7--|--7--7--7--7--|--7--7--------|
E|--5--5--5--5--|--5--5--5--5--|--5--5--5--5--|--5--5--------|



*VERSE: 
e|--------------|--------------|--------------|--------------|
B|--------------|--------------|--------------|--------------|
G|--------------|--------------|--------------|--------------|
D|--------------|--------------|--------------|--------------|
A|--7--7--7--7--|--7--7--7--7--|--7--7--7--7--|--7--7--7--7--|
E|--5--5--5--5--|--5--5--5--5--|--5--5--5--5--|--5--5--5--5--|

e|--------------|--------------|--------------|--------------|
B|--------------|--------------|--------------|---------5----|
G|--------------|--------------|--------------|---------5----|
D|--------------|--------------|--------------|--------------|
A|--7--7--7--7--|--7--7--7--7--|--7--7--7--7--|--7--7--------|
E|--5--5--5--5--|--5--5--5--5--|--5--5--5--5--|--5--5--------|

e|--------------|--------------|--------------|--------------|
B|--------------|--------------|--------------|--------------|
G|--------------|--------------|--------------|--------------|
D|--------------|--------------|--------------|--------------|
A|--7--7--7--7--|--7--7--7--7--|--7--7--7--7--|--7--7--7--7--|
E|--5--5--5--5--|--5--5--5--5--|--5--5--5--5--|--5--5--5--5--|

e|--------------|--------------|--------------|--------------|
B|--------------|--------------|--------------|--------------|
G|--------------|--------------|--------------|--------------|
D|--------------|--------------|--------------|--------------|
A|--5--5--5--5--|--5--5--5--5--|--5--5--5--5--|--5--5--5--5--|
E|--3--3--3--3--|--3--3--3--3--|--3--3--3--3--|--3--3--3--3--|

e|--------------|--------------|--------------|--------------|
B|--------------|--------------|--------------|--------------|
G|--------------|--------------|--------------|--------------|
D|--------------|--------------|--------------|--------------|
A|--7--7--7--7--|--7--7--7--7--|--7--7--7--7--|--7--7--7--7--|
E|--5--5--5--5--|--5--5--5--5--|--5--5--5--5--|--5--5--5--5--|
[ Tab from: http://www.guitartabs.cc/tabs/q/queens_of_the_stone_age/monsters_in_the_parasol_tab_ver_4.html ]
e|--------------|--------------|--------------|--------------|
B|--------------|--------------|--------------|---------5----|
G|--------------|--------------|--------------|---------5----|
D|--------------|--------------|--------------|--------------|
A|--7--7--7--7--|--7--7--7--7--|--7--7--7--7--|--7--7--------|
E|--5--5--5--5--|--5--5--5--5--|--5--5--5--5--|--5--5--------|


*BRIDGE:
e|-----------|-----------|-----------|-----------|
B|-----------|-----------|-----------|-----------|
G|-----------|-----------|-----------|-----------|
D|--7-6-5----|--5-6-7-6--|--7-6-5----|--5-6-7-6--|
A|--------7--|-----------|--------7--|-----------|
E|-----------|-----------|-----------|-----------|
   "...She won't grow..."


*PRE CHORUS:
e|--------------|--------------|--------------|--------------|
B|--------------|--------------|--------------|--------------|
G|--6--6--6--6--|--6--6--6--6--|--3--3--3--3--|--3--3--3--3--|
D|--8--8--8--8--|--8--8--8--8--|--5--5--5--5--|--5--5--5--5--|
A|--6--6--6--6--|--6--6--6--6--|--3--3--3--3--|--3--3--3--3--|
E|--------------|--------------|--------------|--------------|

e|--------------|--------------|--------------|--------------|
B|--------------|--------------|--------------|--------------|
G|--8--8--8--8--|--8--8--8--8--|--9--9--9--9--|--9--9--9--9--|
D|--7--7--7--7--|--7--7--7--7--|--8--8--8--8--|--8--8--8--8--|
A|--8--8--8--8--|--8--8--8--8--|--9--9--9--9--|--9--9--9--9--|
E|--------------|--------------|--------------|--------------|
                                                 .  .  .  .
e|--------------|--------------|
B|--------------|--------------|
G|--9--9--9--9--|--9--9--9--9--|                                           
D|--8--8--8--8--|--8--8--8--8--|
A|--9--9--9--9--|--9--9--9--9--|
E|--------------|--------------|
   .  .  .  .      .  .  .  .

.Staccato.


*CHORUS:
e|------------------|------------------|-----------------|-----------------|
B|------------------|------------------|-----------------|-----------------|
G|--11--11--11--11--|--11--11--11--11--|--7---7---7---7--|--7---7---7---7--|
D|------------------|------------------|-----------------|-----------------|
A|------------------|------------------|-----------------|-----------------|
E|------------------|------------------|-----------------|-----------------|
    .    .   .   .     .    .    .  .     .    .   .    .   .    .   .    .

e|------------------|--------8---------|-----------------|-------8----------|
B|------------------|-----------6--7---|-----------------|-----------6--7---|
G|---5---5---5---5--|---5--------------|--5---5---5---5--|--5---------------|
D|------------------|------------------|-----------------|------------------|
A|------------------|------------------|-----------------|------------------|
E|------------------|------------------|-----------------|------------------|
    .    .   .    .     .                 .    .   .    .   .



*PRE SECOND VERSE: 
e|--------------|--------------|--------------|--------------|
B|--------------|--------------|--------------|---------5----|
G|--------------|--------------|--------------|---------5----|
D|--------------|--------------|--------------|--------------|
A|--7--7--7--7--|--7--7--7--7--|--7--7--7--7--|--7--7--------|
E|--5--5--5--5--|--5--5--5--5--|--5--5--5--5--|--5--5--------|

e|--------------|--------------|--------------|--------------|
B|--------------|--------------|--------------|---------8----|
G|--------------|--------------|--------------|---------8----|
D|--------------|--------------|--------------|--------------|
A|--7--7--7--7--|--7--7--7--7--|--7--7--7--7--|--7--7--------|
E|--5--5--5--5--|--5--5--5--5--|--5--5--5--5--|--5--5--------|