Queens Of The Stone Age - Monster In The Parasol Chords & Tabs

 

Monster In The Parasol Chords & Tabs

Queens Of The Stone Age Chords & Tabs

Version: 1 Type: Tab 0 ratings
1 star 2 stars 3 stars 4 stars 5 stars
comments

Monster In The Parasol Tab

   
#----------------------------------PLEASE NOTE---------------------------------#
#This file is the author's own work and represents their interpretation of the #
#song. You may only use this file for private study, scholarship, or research. #
#------------------------------------------------------------------------------#

Queen of The Stone Age - Monster In The Parasol
Intro Riff:
   A5 C
E|--------------------------
B|-----------------------5--
G|-----------------9-----5--
D|-77777777777777--10-or-5--
A|-77777777777777--10----3--
E|-55555555555555--8-----3--
  pm..............
x4

Bridge Riff:
E|-----------------------------
B|-----------------------------
G|-----------------------------
D|-7-6-5-5-6-7-6-7-6-5-5-6-7-6-
A|------7-------------7--------
E|-----------------------------
        
[ Tab from: http://www.guitartabs.cc/tabs/q/queens_of_the_stone_age/monster_in_the_parasol_tab.html ]
bit after bridge:
E|----------------------------------------------------
B|----------------------------------------------------
G|8-8-8-8-6-6-6-6-10-10-10-10-11-11-11-11-11-11-11-11-
D|6-6-6-6-4-4-4-4-8--8--8--8--9--9--9--9--9--9--9--9--
A|6-6-6-6-4-4-4-4-8--8--8--8--9--9--9--9--9--9--9--9--
E|----------------------------------------------------
Chorus:
   F# DC
E|------------------------------------------------------------7-----
B|------------------------------------------------------------------
G|-11-11-11-11-11-11-11----------------------------------------10h11
D|----------------------12-12-12-12-12-12-12-12-10-10-10-10-10------
A|------------------------------------------------------------------
E|------------------------------------------------------------------
        

E|---------------7------
B|----------------------
G|----------------10h11-
D|-10-10-10-10-10-------
A|----------------------
E|----------------------

Second Verse lyrics:
Paul's sister is an alien, oh well x2
I've seen some things i thought i never saw
Covered in hair
Comments