Queens Of The Stone Age - Millionaire Chords & Tabs

 

Millionaire Chords & Tabs

Queens Of The Stone Age Chords & Tabs

Version: 3 Type: Tab 0 ratings
1 star 2 stars 3 stars 4 stars 5 stars
comments

Millionaire Tab

   
Title-------------Millionare
(also known as "You dont think aint worth a dollar, but I feel like a millionare")
Band--------------Queens of the Stone Age
Album-------------Songs for the Deaf

Tabbed By---------$2 Food Stamp
Email-------------halo2k@forerunners.org
Website-----------halo2k.forerunners.org

Note: I see one guitar tabbing for this song on UG so I'll make another and I'm sure its
alot more accurate.

Key---
h = hammer on
p = pull off
b = bend
r = release bend
x = mute with your finger (dont fully push down to the fret board)
~ = let it ring
/\ = slide

(this song is played with 2 guitars but I'll do what I can...)
(at first just some drumming)

Intro
[----------------------------------]
[----------------------------------]
[----------------------------------]3x
[-5h7------------------------------]
[-----x-x-x-x-x--x-x-x-x-x--x-x----]
[-----0-0-0-0-0--0-0-0-0-0--0-0----]
[---------------------------------------]
[---------------------------------------]
[---------------------------------------]
[-------9-7-----------------------------]
[-9-7-9-----7-x-x-x-x-x--x-x-x-x-x--x-x-]
[-------------0-0-0-0-0--0-0-0-0-0--0-0-]end intro

Verse 1
[---------------------------------]
[---------------------------------]
[---------------------------------]
[---------------------------5h7---] 7x
[-0-0-0-0-0--0-0-0-0-0--0-0-------]
[-0-0-0-0-0--0-0-0-0-0--0-0-------]
[---------------------------]
[---------------------------]
[---------------------------]
[---------------------------]
[-0-0-0-0-0--0-0-0-0-0--0-0-]
[-0-0-0-0-0--0-0-0-0-0--0-0-]end verse

Chorus
[-------------------------------------------------------------------]
[-------------------------------------------------------------------]
[--------------------------------------------------------12-14b-12~-]
[-7-7-7-5-55555555-------------7-7-7-5-55555555-12-14-12------------]
[-7-7-7-5-55555555---------3-5-7-7-7-5-55555555---------------------]
[-5-5-5-3-33333333-3-5-3-5-----5-5-5-3-33333333---------------------]end chorus

Preverse 1
[---------------------------------]
[---------------------------------]
[---------------------------------]
[---------------------------5h7---] 4x
[-0-0-0-0-0--0-0-0-0-0--0-0-------]
[-0-0-0-0-0--0-0-0-0-0--0-0-------]end preverse

Verse 2
[---------------------------------------]
[---------------------------------------]
[---------------------------------------]
[---------------------------------9-7---]
[-0-0-0-0-0--0-0-0-0-0--0-0-9-7-9-----7-]
[-0-0-0-0-0--0-0-0-0-0--0-0-------------]
[---------------------------------]
[---------------------------------]
[---------------------------------]
[---------------------------5h7---] 4x
[-0-0-0-0-0--0-0-0-0-0--0-0-------]
[-0-0-0-0-0--0-0-0-0-0--0-0-------]
[---------------------------]
[---------------------------]
[---------------------------]
[---------------------------]
[-0-0-0-0-0--0-0-0-0-0--0-0-]
[-0-0-0-0-0--0-0-0-0-0--0-0-]end verse
[ Tab from: http://www.guitartabs.cc/tabs/q/queens_of_the_stone_age/millionaire_tab_ver_3.html ]
Chorus
[---------------------------------
[---------------------------------
[---------------------------------
[-7-7-7-5-55555555-------3h6p3p0~-
[-7-7-7-5-55555555-3-5-3----------
[-5-5-5-3-33333333----------------

----------------------------------------------]
------------------------------------15--15----]
------------------------12/14\12/14---14--16~-]
-7-7-7-5-55555555-12/14-----------------------]
-7-7-7-5-55555555-----------------------------]
-5-5-5-3-33333333-----------------------------]end chorus

Preverse 2
[-------------------------------------------]
[-------------------------------------------]
[-------------------------------------------]
[---------------------------7-5-5-3---------]3x
[-0-0-0-0-0--0-0-0-0-0--0-0---------5-3-----]
[-0-0-0-0-0--0-0-0-0-0--0-0-------------5-3-]

[--------------------------------------]
[--------------------------------------]
[-----------------------------------7~-]
[-----------------------------7h9p7----]
[-0-0-0-0-0--0-0-0-0-0--0-0-7----------]
[-0-0-0-0-0--0-0-0-0-0--0-0------------]end preverse

Verse 3
[---------------------------------------]
[---------------------------------------]
[-----------------------------------7-9~]
[-----------------------------------7-9-]3x
[-0-0-0-0-0--0-0-0-0-0--0-0-5-7-7-9-----]
[-0-0-0-0-0--0-0-0-0-0--0-0-------------]

[---------------------------]
[---------------------------]
[---------------------------]
[---------------------------]
[-0-0-0-0-0--0-0-0-0-0--0-0-]
[-0-0-0-0-0--0-0-0-0-0--0-0-]end verse

Chorus
[------------------------------------
[------------------------------------
[------------------12-12h14p12h14p12~
[-7-7-7-5-55555555-------------------
[-7-7-7-5-55555555-------------------
[-5-5-5-3-33333333-------------------

[---------------------------------------]
[---------------------------------------]
[------------------14-12-12-10----------]
[-7-7-7-5-55555555-------------12-10----]
[-7-7-7-5-55555555-------------------10-]
[-5-5-5-3-33333333----------------------]end chorus

(theres a long pause)

Preverse 3

(just repeat the intro)

Verse 4
[---------------------------------------------]
[---------------------------------------------]
[---------------------------------------12-14~]
[---------------------------------10-12-------]4x
[-0-0-0-0-0--0-0-0-0-0--0-0-10-12-------------]
[-0-0-0-0-0--0-0-0-0-0--0-0-------------------]

[---------------------------]
[---------------------------]
[---------------------------]
[---------------------------]
[-0-0-0-0-0--0-0-0-0-0--0-0-]
[-0-0-0-0-0--0-0-0-0-0--0-0-]end verse

Chorus
[---------------------------------
[---------------------------12-14-
[---------------------14-12-------
[-7-7-7-5-55555555-12-------------
[-7-7-7-5-55555555----------------
[-5-5-5-3-33333333----------------

---------------------------------------]
---------------------------------------]
------------------14-12-12-10----------]
-7-7-7-5-55555555-------------12-10----]
-7-7-7-5-55555555-------------------10-]
-5-5-5-3-33333333----------------------]end chorus

...ugh! thats the whole song I'm hoping I got it right. Thats my 3rd song I ever tabbed
out. Well if you have any comment or corrections please email me at halo2k@forerunners.org.
Comments