Queens Of The Stone Age - Medication Chords & Tabs

 

Medication Chords & Tabs

Queens Of The Stone Age Chords & Tabs

Version: 1 Type: Tab 0 ratings
1 star 2 stars 3 stars 4 stars 5 stars
comments

Medication Tab

Noone else has tabbed MEDICATION so I said I might as well.I have the Lullabies To Paralize Dvd 
and I could see his fingers so Im pretty sure this is right.

         Intro;
   -----------------------------------------------------------
   -----------------------------------------------------------    
   -----------------------------------------------------------
   ---13-~-15------13-~-15-----13-~-15-----13-~-15-----13-~-15
   ---11-~-13------11-~-13-----11-~-13-----11-~-13-----11-~-13
   -----------------------------------------------------------


   -----------------------------------------------------------
   -----------------------------------------------------------
   -----------------------------------------------------------
   -15-15-15-15-15-15-15-15-15-15-15-15-15-15-15-15-15-15-15--   so on...
   -13-13-13-13-13-13-13-13-13-13-13-13-13-13-13-13-13-13-13--
   -----------------------------------------------------------


  Medication,(blah blah blah blah)Its the new way,so you

   -------------------------------------/-----------------------------------------------------------
   -------------------------------------/-----------------------------------------------------------
   ------------13-13-----------15-15----/-----------------------------------------------------------
   ---11-11----11-11---13-13---13-13----/---13-~-15------13-~-15-----13-~-15-----13-~-15-----13-~-15 
   ---09-09------------11-11------------/---11-~-13------11-~-13-----11-~-13-----11-~-13-----11-~-13
   -------------------------------------/-----------------------------------------------------------



   -----------------------------------------------------------
   -----------------------------------------------------------
   -----------------------------------------------------------
   -15-15-15-15-15-15-15-15-15-15-15-15-15-15-15-15-15-15-15--   so on...
   -13-13-13-13-13-13-13-13-13-13-13-13-13-13-13-13-13-13-13--
   -----------------------------------------------------------

   Medication,(blah blah blah blah)Its the new way,so you     

[ Tab from: http://www.guitartabs.cc/tabs/q/queens_of_the_stone_age/medication_tab.html ]
  -------------------------------------/-----------------------------------------------------------
   -------------------------------------/-----------------------------------------------------------
   ------------13-13-----------15-15----/-----------------------------------------------------------
   ---11-11----11-11---13-13---13-13----/---13-~-15------13-~-15-----13-~-15-----13-~-15-----13-~-15 
   ---09-09------------11-11------------/---11-~-13------11-~-13-----11-~-13-----11-~-13-----11-~-13
   -------------------------------------/-----------------------------------------------------------


   -----------------------------------------------------------
   -----------------------------------------------------------
   -----------------------------------------------------------
   -15-15-15-15-15-15-15-15-15-15-15-15-15-15-15-15-15-15-15--   so on...
   -13-13-13-13-13-13-13-13-13-13-13-13-13-13-13-13-13-13-13--
   -----------------------------------------------------------


   OOOooooooOOOOOOOoooooooOOoo!


   -------------------------------------/-----------------------------------------------------------
   -------------------------------------/-----------------------------------------------------------
   ------------13-13-----------15-15----/-----------------------------------------------------------
   ---11-11----11-11---13-13---13-13----/---13-~-15------13-~-15-----13-~-15-----13-~-15-----13-~-15 
   ---09-09------------11-11------------/---11-~-13------11-~-13-----11-~-13-----11-~-13-----11-~-13
   -------------------------------------/-----------------------------------------------------------



   /----------------------------------------------------  
   /----------------------------------------------------
   /----------------------------------------------------
   /---13-~-15------13-~-15-----13-~-15-----13-~-15----- 
   /---11-~-13------11-~-13-----11-~-13-----11-~-13-----
   /----------------------------------------------------


   ----------------------------------------------------------
   -----------------------------------------------------------
   -----------------------------------------------------------
   -15-15-15-15-15-15-15-15-15-15-15-15-15-15-15-15-15-15-15--   
   -13-13-13-13-13-13-13-13-13-13-13-13-13-13-13-13-13-13-13--
   -----------------------------------------------------------


   Then the verse is just repeated for finish.
   

Comments