Queens Of The Stone Age - Medication Chords & Tabs

 

Medication Chords & Tabs

Queens Of The Stone Age Chords & Tabs

Version: 1 Type: Bass Tab 0 ratings
1 star 2 stars 3 stars 4 stars 5 stars
comments

Medication Bass Tab

Song: Medication
Artist: Queens of the Stone Age (One of the best bands ever)
Album: Lullabies to paralyze
Bassist: Troy van Leeuwen (good bassist, but will never replace Nick)
Tabbed by: Lostprophit9

Standard tuning.

intro
G|-----------------------------------|
D|---8-8-8-8-8-8-8-8-----------------|
A|-----------------------------------|
E|-------------------6-6-6-6-6-6-6-6-|

Bass fill 1
G|------------------------|
D|------------------------|
A|------------------------|
E|-4-6-4-6-4-6-4-6-4-6----|
[ Tab from: http://www.guitartabs.cc/tabs/q/queens_of_the_stone_age/medication_btab.html ]
                                      End variations
verse                               (End #1)  (End #2)
G|---------------------------------|--------|--------|
D|---------------------------------|--------|--------|
A|---------------------------------|-8-6----|--------|
E|-6-6-6-6-6-6-6-6-6-6-6-6-6-6-6-6-|-----7-6|-0-4-6--|


Chorus
G|--------------------|
D|--------------------|
A|------4-4-----------|
E|-2-2-------4-4--0-0-|

Order:
Intro x2
Fill x1
Verse (with no "end" variation) x2
Chorus x1
Fill x1
Verse (with end variation #1) x3
Chorus x1
Fill x1
Verse (with no "end" variation) x4
Chorus x1
Fill x1
Verse (with end variation #2) x4
Chorus x1
Fill x3
Verse (with end variation #1) x4
Chorus x1
Fill x1
Verse (with end variation #2) x3
Chorus x1
Fill x1

Fun song to play.
Comments