Queens Of The Stone Age - Little Sister Chords & Tabs

 

Little Sister Chords & Tabs

Queens Of The Stone Age Chords & Tabs

Version: 4 Type: Tab 0 ratings
1 star 2 stars 3 stars 4 stars 5 stars
comments

Little Sister Tab

I didn't tab this I got it from the QOTSA Forum but still post corrections.

main riff:

e-------------------|------------------------|
b--------------999--|------------------------|
g--666-----999-888--|----------999-999-8\6---|
d--666-666-999-666--|----------999-999-8\6---|
a--444-666-777-666--|--999-999-777-777-6\4---|
e------444----------|--999-999---------------|

chorus:
[ Tab from: http://www.guitartabs.cc/tabs/q/queens_of_the_stone_age/little_sister_tab_ver_4.html ]
----------------------------------------------|
----------------------------------------------|
--64646464-4-4-4-4--86868686-64646464---------|
--44444444-22222222-66666666-44444444---------|
--44444444-22222222-66666666-44444444---------|
----------------------------------------------|

after chorus:

----------------------------------------------|
--12b-----------------------------------------|
------11b-11b---------------------------------|
--------------11b-----------------------------|
----------------------------------------------|
----------------------------------------------|

----------------------------------------------|
------999-----999-------------999-------------|
--666-888-999-888-666-888-999-888-------------|
--666-666-999-666-666-666-999-666-------------|
--444-----777-----444-666-777-----------------|
----------------------------------------------|

corrections? improvements?

impossible.

let me know anyway
Comments