Queens Of The Stone Age - Little Sister Chords & Tabs

 

Little Sister Chords & Tabs

Queens Of The Stone Age Chords & Tabs

Version: 3 Type: Tab 0 ratings
1 star 2 stars 3 stars 4 stars 5 stars
comments

Little Sister Tab

Intro:

------------------|
------------------|
--------------12--|
--10------13--10--| (x4)
--8---10--11------|
------8-----------|

Verse: (x2)

------------------     ----------------|
------------------     ----------------|
--------------12--     ----------------|
--10------13--10-- (x3)  --------------| (x1)
--8---10--11------     --8-8--6-6------|
------8-----------     --6-6--4-4------|

Chorus:

------------------------------------------|
------------------------------------------|
------------------------------------------|
--8-8-8-8--6-6-6-6--10-10-10-10--8-8-8-8--| (x3)
--8-6-8-6--6-5-6-5--10-8--10-8---8-6-8-6--|
--6-6-6-6--4-4-4-4--8--8--8--8---6-6-6-6--|

---------------------------------|
---------------------------------|
---------------------------------|
--8-8-8-8--6-6-6-6--10-10-10-10--| (x1)
--8-6-8-6--6-5-6-5--10-8--10-8---|
--6-6-6-6--4-4-4-4--8--8--8--8---|

Bridge:

(You can bend or slide here, it's up to you)
[ Tab from: http://www.guitartabs.cc/tabs/q/queens_of_the_stone_age/little_sister_tab_ver_3.html ]
--11/13\11--------------------------------|
------------11/13\11--11/13\11------------|
--------------------------------10/12\10--|
------------------------------------------| (x2)
------------------------------------------|
------------------------------------------|

------------------|
------------------|
------------------|
--10------13------| (x1)
--8---10--11--10--|
------8-------8---|

--11/13\11--------------------------------|
------------11/13\11--11/13\11------------|
--------------------------------10/12\10--|
------------------------------------------| (x1)
------------------------------------------|
------------------------------------------|

Verse (x2)

Chorus

Outro\Solo:

--11/13\11--------------------------------|
------------11/13\11--11/13\11------------|
--------------------------------10/12\10--|
------------------------------------------| (x2)
------------------------------------------|
------------------------------------------|

--11/13\11--13/15\13--13/15/16--15\13\12--|
------------------------------------------|
------------------------------------------|
------------------------------------------| (x2)
------------------------------------------|
------------------------------------------|
Comments