Queens Of The Stone Age - Little Sister Chords & Tabs

 

Little Sister Chords & Tabs

Queens Of The Stone Age Chords & Tabs

Version: 1 Type: Tab 13 ratings
1 star 2 stars 3 stars 4 stars 5 stars
comments

Little Sister Tab

   
Queen Of The Stone Age
Little Sister
Standard Tuning(I submitted a Db tuned one too)


Intro
----------------------------------

Guitar 1:

e|-------------------------|--------------------
B|-------------------------|--------------------
G|-6--6-----------------9--|--9--9--------------
D|-6--6-----6--6--6-----9--|--9--9----6--6--6---
A|-4--4-----6--6--6-----7--|--7--7----6--6--6---
E|----------4--4--4--------|----------4--4--4---

e|----|-------------------------|--------------------
B|----|-------------------------|--------------------
G|-6--|-6--6-----------------9--|--9--9--------------
D|-6--|-6--6-----6--6--6-----9--|--9--9----6--6--6---   x3
A|-4--|-4--4-----6--6--6-----7--|--7--7----6--6--6---
E|----|----------4--4--4--------|----------4--4--4---

Guitar 2:

e|----|-------------------------|--------------------
B|----|-------------------------|--------------------
G|----|-6--6------8--8--8----9--|--9--9----13-13-13--
D|----|-6--6------8--8--8----9--|--9--9----13-13-13--
A|----|-4--4------6--6--6----7--|--7--7----11-11-11--
E|----|-------------------------|--------------------

e|----|-------------------------|--------------------
B|----|-------------------------|--------------------
G|-6--|-6--6------8--8--8----9--|--9--9----13-13-13--
D|-6--|-6--6------8--8--8----9--|--9--9----13-13-13--   x3
A|-4--|-4--4------6--6--6----7--|--7--7----11-11-11--
E|----|-------------------------|--------------------



Verse 1
----------------------------------

Guitar 1:

e|-*--|-------------------------|--------------------        --|
B|----|-------------------------|--------------------          |
G|-6--|-6--6-----------------9--|--9--9--------------          |
D|-6--|-6--6-----6--6--6-----9--|--9--9----6--6--6---   x3     |
A|-4--|-4--4-----6--6--6-----7--|--7--7----6--6--6---          |
E|----|----------4--4--4--------|----------4--4--4---          |
                                                                |--  x2
e|----|-------------------------|-------------------------|    |
B|----|-------------------------|-------------------------|    |
G|----|-------------------------|-------------------------|    |
D|-4--|-4--4-----4--4--4-----2--|-2--2-----2--2--2--1--0--|    |
A|-4--|-4--4-----4--4--4-----2--|-2--2-----2--2--2--1--0--|    |
E|-2--|-2--2-----2--2--2-----0--|-0--0-----0--0--0--x--x--|  --|

Guitar 2:

e|-*--|-------------------------|--------------------        --|
B|----|-------------------------|--------------------          |
G|-6--|-6--6-----------------9--|--9--9----13-13-13--          |
D|-6--|-6--6-----6--6--6-----9--|--9--9----13-13-13--   x3     |
A|-4--|-4--4-----6--6--6-----7--|--7--7----11-11-11--          |
E|----|----------4--4--4--------|--------------------          |
                                                                |--  x2
e|----|-------------------------|-------------------------|    |
B|----|-------------------------|-------------------------|    |
G|-11-|--11-11----11-11-11---9--|--9--9----9--9--9--8--6--|    |
D|-11-|--11-11----11-11-11---9--|--9--9----9--9--9--8--6--|    |
A|--9-|---9--9-----9--9--9---7--|--7--7----7--7--7--6--4--|    |
e|----|-------------------------|-------------------------|  --|



Chorus 1
----------------------------------

Guitar 1:

e|-------------------------|-------------------------|  --|
B|-------------------------|-------------------------|    |
G|-------------------------|-------------------------|    |
D|-4--4--4--4--4--4--4--4--|-2--2--2--2--2--2--2--2--|    |
A|-4--2--4--2--4--2--4--2--|-2--0--2--0--2--0--2--0--|    |
E|-2--2--2--2--2--2--2--2--|-0--0--0--0--0--0--0--0--|    |
                                                            |--  x3
e|-------------------------|-------------------------|    |
B|-------------------------|-------------------------|    |
G|-------------------------|-------------------------|    |
D|-6--6--6--6--6--6--6--6--|-4--4--4--4--4--4--4--4--|    |
A|-6--4--6--4--6--4--6--4--|-4--2--4--2--4--2--4--2--|    |
E|-4--4--4--4--4--4--4--4--|-2--2--2--2--2--2--2--2--|  --|

e|-------------------------|-------------------------|
B|-------------------------|-------------------------|
G|-------------------------|-------------------------|
D|-4--4--4--4--4--4--4--4--|-2--2--2--2--2--2--2--2--|
A|-4--2--4--2--4--2--4--2--|-2--0--2--0--2--0--2--0--|
E|-2--2--2--2--2--2--2--2--|-0--0--0--0--0--0--0--0--|

e|-------------------------|----------------------
B|-------------------------|----------------------
G|-------------------------|----------------------
D|-6--6--6--6--6--6--6--6--|-6--6--6--6--6--6--6--
A|-6--4--6--4--6--4--6--4--|-6--4--6--4--6--4--6--
E|-4--4--4--4--4--4--4--4--|-4--4--4--4--4--4--4--

Guitar 2:

e|-------------------------|-------------------------|  --|
B|-------------------------|-------------------------|    |
G|-11-11-11-11-11-11-11-11-|--9--9--9--9--9--9--9--9-|    |
D|-11--9-11--9-11--9-11--9-|--9--7--9--7--9--7--9--7-|    |
A|--9--9--9--9--9--9--9--9-|--7--7--7--7--7--7--7--7-|    |
E|-------------------------|-------------------------|    |
                                                            |--  x3
e|-------------------------|-------------------------|    |
B|-------------------------|-------------------------|    |
G|-13-13-13-13-13-13-13-13-|-11-11-11-11-11-11-11-11-|    |
D|-13-11-13-11-13-11-13-11-|-11--9-11--9-11--9-11--9-|    |
A|-11-11-11-11-11-11-11-11-|--9--9--9--9--9--9--9--9-|    |
E|-------------------------|-------------------------|  --|

e|-------------------------|-------------------------|
B|-------------------------|-------------------------|
G|-11-11-11-11-11-11-11-11-|--9--9--9--9--9--9--9--9-|
D|-11--9-11--9-11--9-11--9-|--9--7--9--7--9--7--9--7-|
A|--9--9--9--9--9--9--9--9-|--7--7--7--7--7--7--7--7-|
E|-------------------------|-------------------------|

e|-------------------------|-----------------------
B|-------------------------|-----------------------
G|-13-13-13-13-13-13-13-13-|-13-13-13-13-13-13-13--
D|-13-11-13-11-13-11-13-11-|-13-11-13-11-13-11-13--
A|-11-11-11-11-11-11-11-11-|-11-11-11-11-11-11-11--
E|-------------------------|-----------------------


Interlude
----------------------------------

Guitar 1:

e|----|-------------------------|-------------------
B|--12/14/12--------------------|-------------------
G|----|----------11/13/11-----11/13/11--------------
D|----|-------------------------|----------11/13/11-   x2
A|----|-------------------------|-------------------
E|----|-------------------------|-------------------

e|----|-------------------------|-----------------------
B|----|-------------------------|-----------------------
G|----|-6--6--6-----------------|--9--9--9--------------
D|----|-6--6--6-----6--6--6-----|--9--9--9----6--6--6---
A|----|-4--4--4-----6--6--6-----|--7--7--7----6--6--6---
E|----|-------------4--4--4-----|-------------4--4--4---
[ Tab from: http://www.guitartabs.cc/tabs/q/queens_of_the_stone_age/little_sister_tab.html ]
e|----|-------------------------|-------------------
B|--12/14/12--------------------|-------------------
G|----|----------11/13/11-----11/13/11--------------
D|----|-------------------------|----------11/13/11-
A|----|-------------------------|-------------------
E|----|-------------------------|-------------------

Guitar 2:

e|----|-------------------------|--------------------
B|----|-------------------------|--------------------
G|-6--|-6--6-----8--8--8-----9--|--9--9----13-13-13--
D|-6--|-6--6-----8--8--8-----9--|--9--9----13-13-13--   x2
A|-4--|-4--4-----6--6--6-----7--|--7--7----11-11-11--
E|----|-------------------------|--------------------

e|----|-------------------------|----------------------
B|----|-------------------------|----------------------
G|----|-6--6--6------8--8--8----|-9--9--9----13-13-13--
D|----|-6--6--6------8--8--8----|-9--9--9----13-13-13--
A|----|-4--4--4------6--6--6----|-7--7--7----11-11-11--
E|----|-------------------------|----------------------

e|----|-------------------------|--------------------
B|----|-------------------------|--------------------
G|----|-6--6------8--8--8----9--|--9--9----13-13-13--
D|----|-6--6------8--8--8----9--|--9--9----13-13-13--
A|----|-4--4------6--6--6----7--|--7--7----11-11-11--
E|----|-------------------------|--------------------


Verse 2
----------------------------------

Same as Verse 1 but without the first chord (*).


Chorus 2
----------------------------------

Same as Chorus 1.


Solo
----------------------------------

Guitar 1:

e|-----------------------------|-----------------------------|
B|12/14/12---------------------|-----------------------------|
G|-------------11/13/11--------|11/13/11---------------------|
D|-----------------------------|-------------11/13/11--------|  x2
A|-----------------------------|-----------------------------|
E|-----------------------------|-----------------------------|

e|-----------------------------|-----------------------------|
B|12h14p12-----14h16p14--------|14h16h17-----16p14p13--------|
G|-----------------------------|-----------------------------|
D|-----------------------------|-----------------------------|  x2
A|-----------------------------|-----------------------------|
E|-----------------------------|-----------------------------|

e|-----------------------------|-------------15b16--------16-|
B|-14-14-14----16-16-16--------|17-17-17---------------------|
G|-----------------------------|-----------------------------|
D|-----------------------------|-----------------------------|
A|-----------------------------|-----------------------------|
E|-----------------------------|-----------------------------|

e|-16--16----14b--14--14----12h14p12-------------------------|
B|-----------------------------|-------16p14p13--------------|
G|-----------------------------|-----------------------------|
D|-----------------------------|-----------------------------|
A|-----------------------------|-----------------------------|
E|-----------------------------|-----------------------------|

e|-----------------------------|-----------------------------|
B|-12--14--------------------12h14---------------------------|
G|---------13------------------|---13-11-13----11-13---------|
D|-----------------------------|--------------------------13-|
A|-----------------------------|---------------------11s14---|
E|-----------------------------|-----------------------------|

e|-----------------------------|-----------------------------|
B|-----------------------------|-----------------------------|
G|-11h13-----------------------|-------------11h13-----------|
D|-------13s11-----------------|------------------13p11p9h13-|
A|-------------11------9h11-11-|--9h11p9h11------------------|
E|-----------------------------|-----------------------------|

e|-----------------------------|-----------------------------|
B|-----------------------------|-----------------------------|
G|-----------------------------|-----------------------------|
G|---11-------13-11--13-11-----|-13---11---13---10-----------|
A|-----------------------------|-----------------------------|
E|-----------------------------|-----------------------------|

e|-----------------------------|-------9--9------------------|
B|-----------------9-----------|----9---------12h14-----13---|
G|------------9----------------|-9------------------13-------|
D|--9--h11-----------------9h11|-----------------------------|
A|-----------------------------|-----------------------------|
E|-----------------------------|-----------------------------|

e|-----------------------------|--------s16------------------|
B|-12--14--12--14s16--14---12--|-14------------13------------|
G|-----------------------------|-----13----------------------|
D|-----------------------------|-----------------------------|
A|-----------------------------|-----------------------------|
E|-----------------------------|-----------------------------|

e|-----------------------------|--------14--14--14-----------|
B|-12--14--12h14s16---14h16h17-|--16h17----------------------|
G|-----------------------------|-----------------------------|
D|-----------------------------|-----------------------------|
A|-----------------------------|-----------------------------|
E|-----------------------------|-----------------------------|

e|-14h16-16-16---14h16-16-16---|-12h14-14-14---11------------|
B|-----------------------------|-----------------------------|
G|-----------------------------|-----------------------------|
D|-----------------------------|-----------------------------|
A|-----------------------------|-----------------------------|
E|-----------------------------|-----------------------------|

e|-----16----16-----16----16---|-----19----(19)---16----(16)-|
B|--14----14-----16----16------|--17----17-----13----13------|
G|-----------------------------|-----------------------------|
D|-----------------------------|-----------------------------|  x4
A|-----------------------------|-----------------------------|
E|-----------------------------|-----------------------------|

Guitar 2:

e|-------------------------|-------------------------|
B|-------------------------|-------------------------|
G|-------------------------|-------------------------|
D|-------------------------|-------------------------|  x4
A|-------------------------|-------------------------|
E|-------------------------|-------------------------|

e|----|-------------------------|-----------------------
B|----|-------------------------|-----------------------
G|----|-6--6--6-----------------|--9--9--9--------------
D|----|-6--6--6-----6--6--6-----|--9--9--9----6--6--6---
A|----|-4--4--4-----6--6--6-----|--7--7--7----6--6--6---
E|----|-------------4--4--4-----|-------------4--4--4---

e|----|-------------------------|--------------------
B|----|-------------------------|--------------------
G|-6--|-6--6-----8--8--8-----9--|-9--9-----13-13-13--
D|-6--|-6--6-----8--8--8-----9--|-9--9-----13-13-13--   x11
A|-4--|-4--4-----6--6--6-----7--|-7--7-----11-11-11--
E|----|-------------------------|--------------------



Both Guitars end on:

e|---|
B|---|
G|-6-|
A|-6-|
D|-4-|
E|---|
Comments