Queens Of The Stone Age - Little Sister Chords & Tabs

 

Little Sister Chords & Tabs

Queens Of The Stone Age Chords & Tabs

Version: 4 Type: Bass Tab 0 ratings
1 star 2 stars 3 stars 4 stars 5 stars
comments

Little Sister Bass Tab

Just updating my old tab, because i realized it was completely wrong.

Standard tuning


Intro
|-----------------------8-8-8-------------------------|
|-7-6-------6-6-6-------------------------------------|
|-----7-4-4-------7-7-7-------4-4-4-6-6-6-7-7-7-------|
|-----------------------------------------------4-4-4-|

Verse (x2)
|-------------------8-8-8-------------------------|
|-------6-6-6-------------------------------------|
|-4-4-4-------7-7-7-------4-4-4-6-6-6-7-7-7-------|
|-------------------------------------------4-4-4-|

|-------------------8-8-8-------------------------------|
|-------6-6-6-------------4-4-4-4-4-4-------------------|
|-4-4-4-------7-7-7-------------------7-7-7-7-7-7-6-4---|
|-------------------------------------------------------|

Chorus
|--------------------------------------------------------------|
|--------------------------------------------------------------|
|-9-9-9-9-9-9-0-9-0--7-7-7-7-7-7-0-7-0--11-11-11-11-11-0-11-0--|
|--------------------------------------------------------------|

|-----------------------------------------|
|-----------------------------------------|
|-9-9-9-9-9-9-0-9-0--9-0-9-0-9-0-9-0------|
|-----------------------------------------|

|--------------------------------------------------------------|
|--------------------------------------------------------------|
|-7-7-7-7-7-7-0-7-0--11-11-11-11-11-0-11-0--9-9-9-----7-9-9----|
|-------------------------------------------------7-9----------|

|--------------------------------------------------------------|
|--------------------------------------------------------------|
|-9-0-9-0-9-0-9-0--7-7-7-7-7-7-0-7-0--11-11-11-11-11-0-11-0----|
|--------------------------------------------------------------|

|-----------------------------------------------------|
|-----------------------------------------------------|
|-9-9-9-----7-9-9--9-0-9-0-9-0-9-0--7-7-7-7-7-7-0-7-0-|
|-------7-9-------------------------------------------|

|----------------------------------------------|
|----------------------------------------------|
|-11-11-11-0-11-11-11-0--11-0-11-0-11-0-11-0---|
|----------------------------------------------|

Bridge
|-------------------8-8-8-------------------------|
|-------6-6-6-------------------------------------|
|-4-4-4-------7-7-7-------4-4-4-6-6-6-7-7-7-------|
|-------------------------------------------4-4-4-|

|-------------------------------------------------|
|-------6-6-6-------6-6-6-------------------------|
|-4-4-4-------7-7-7-------4-4-4-6-6-6-7-7-7-------|
|-------------------------------------------4-4-4-|

Verse II (this sounds about right) (and x2)
|-----------------------8-8---------------------------------|
|-------6-6-6-----6---6-------6-----------------------------|
|-4-4-4-------6h7---7-------6-----4-4-6-6-6---6-7-7---7-----|
|-------------------------------------------9-------9---4-4-|
[ Tab from: http://www.guitartabs.cc/tabs/q/queens_of_the_stone_age/little_sister_btab_ver_4.html ]
|-------------------8-8-8-------------------------------|
|-------6-6-6-------------4-4-4-4-4-4-------------------|
|-4-4-4-------7-7-7-------------------7-7-7-7-7-7-6-4---|
|-------------------------------------------------------|

Chorus
|--------------------------------------------------------------|
|--------------------------------------------------------------|
|-9-9-9-9-9-9-0-9-0--7-7-7-7-7-7-0-7-0--11-11-11-11-11-0-11-0--|
|--------------------------------------------------------------|

|-----------------------------------------|
|-----------------------------------------|
|-9-9-9-9-9-9-0-9-0--9-0-9-0-9-0-9-0------|
|-----------------------------------------|

|--------------------------------------------------------------|
|---------------------------------------------7----------------|
|-7-7-7-7-7-7-0-7-0--11-11-11-11-11-0-11-0--9---9-7-9-----7-9--|
|-----------------------------------------------------7-9------|

|--------------------------------------------------------------|
|--------------------------------------------------------------|
|-9-0-9-0-9-0-9-0--7-7-7-7-7-7-0-7-0--11-11-11-11-11-0-11-0----|
|--------------------------------------------------------------|

|-----------------------------------------------------|
|-----------------------------------------------------|
|-9-9-9-----7-9-9--9-0-9-0-9-0-9-0--7-7-7-7-7-7-0-7-0-|
|-------7-9-------------------------------------------|

|----------------------------------------------|
|----------------------------------------------|
|-11-11-11-0-11-11-11-0--11-0-11-0-11-0-11-0---|
|----------------------------------------------|

Solo:

*rest*

|-----------------------8-8-8-------------------------|
|-7-6-------6-6-6-------------------------------------|
|-----7-4-4-------7-7-7-------4-4-4-6-6-6-7-7-7-------|
|-----------------------------------------------4-4-4-|

|------------------8~------------|
|-------6-6-6--------------------|
|-4-4-4------7-7-7---------------|
|--------------------------------|

|-------------------8-8-8-------------------------|
|-------6-6-6-------------------------------6-6-6-|
|-4-4-4-------7-7-7-------4-4-4-6-6-6-7-7-7-------|
|-------------------------------------------------| x3

|-------------------8-8-8-------------------------|
|-------6-6-6-------------------------------------|
|-4-4-4-------7-7-7-------4-4-4-6-6-6-7-7-7-------|
|-------------------------------------------4-4-4-|

|-----------------------8-8---------------------------------|
|-------6-6-6-----6---6-------6-----------------------------|
|-4-4-4-------6h7---7-------6-----4-4-6-6-6---6-7-7---7-----|
|-------------------------------------------9-------9---4-4-|

|----------------------------13-13-13---|
|-11-11-11-13-13-13-14-14-14------------|
|---------------------------------------|
|---------------------------------------|

|------------------------------------------------|
|-11-11-11-9-9-9-7-7-7-6-6-6---------------------|
|----------------------------4-4~----4/6\0-------|
|------------------------------------------------|

There it is peeps. This is how i play it, and it sounds pretty good. So have fun.

~Lostprophit
Comments